Song name
# A B C D E F G H I J K L M N O P Q R S T U V W X Y Z

Eels - Wrong About Bobby tab

-------------------------------------------------------------------------------
			     Wrong About Bobby (Solo) - Eels
-------------------------------------------------------------------------------

Tuning:EADGBe

e|------10---7------8--10-8-7-------|
B|-------------10-8------------10-8-|
G|-5/7-----7------------------------|
D|----------------------------------|
A|----------------------------------|
E|----------------------------------|

e|----10---7------8--10-8-7-------|
B|-----------10-8------------10-8-|
G|-7-----7------------------------|
D|--------------------------------|
A|--------------------------------|
E|--------------------------------|

e|----10---7------8--10-8-7--------|
B|-----------10-8------------10-8/-|
G|-7-----7-------------------------|
D|---------------------------------|
A|---------------------------------|
E|---------------------------------|

e|----------------------|
B|-6------5------3------|
G|----------------------|
D|----------------------|
A|----------------------|
E|----------------------|

| /  slide up
| \  slide down
| h  hammer-on
| p  pull-off
| ~  vibrato
| +  harmonic
| x  Mute note
===============================================================================
Tap to rate this tab
# A B C D E F G H I J K L M N O P Q R S T U V W X Y Z