Song name
# A B C D E F G H I J K L M N O P Q R S T U V W X Y Z

Eels - Last Time We Spoke tab

Well I took the time to tab this because it's a great song and there were no other tabs for it. enjoy.

Intro:

e|---------------------|
b|---------------------|
g|----4--4-----4--4----|
d|----x--x-----x--x----|
a|----5--5-----5--5----|
E|-3--------3----------|


Verse:

e|------------------------------------------------------------------|
b|------------------------------------------------------------------|
g|----4--4-----4--4-----4--4-----6--6-----5--5-----4--4------6--5---|
d|----x--x-----x--x-----x--x-----5--5-----5--5-----x--x------5--5---|
a|----5--5-----5--5-----5--5---4-------3-----------5--5---4-----3---|
E|-3--------3--------3--------------------------3-------------------|


Chorus:

e|----------------------------------------------------------------------------|
b|----------------------------------------------------------------------------|
g|----5--5-----5--5-----4--4------4--4------6--6-----6--6-----6--6------7--7--|
d|----5--5-----5--5-----x--x------x--x------5--5-----5--5-----5--5------7--7--|
a|-3--------3-----------5--5------5--5-------------------------------5--5-----|
E|-------------------3---------3---------5--------5--------5------------------|

 
Okay that's the different sections now here's the order the are played in:-

Intro x2

Verse x1

Intro x1

Verse x1

Intro x1

Chorus x1

Intro x1

Verse x1

Intro x1

Chorus x1

Repeat Intro to fade out.


Please rate generously and have fun.
Tap to rate this tab
# A B C D E F G H I J K L M N O P Q R S T U V W X Y Z