Song name
# A B C D E F G H I J K L M N O P Q R S T U V W X Y Z

Eevee - Ang Sarap Maging Single tab

EEVEE-
Ang Sarap Maging Single


Note: Listen to Song For Strumming Patterns

Intro:B-F#-E(3x)
      G-A-B

Rhythm Tabs for Chorus and Intro

B  F# E G A B
x  x  x x x x
x  x  x x x x
4  x  x x x x
4  4  2 5 7 9
2  4  2 5 7 9
x  2  0 3 5 7

Intro:
Lead Distortion        Rhythm Guitar Enters
e----------------|--------------------------------------------------------------------------------|
B----------------|--------------------------------12-14-12-14/16-12-14/16-12----------------------|
G----------------|11-11-13-------------------11h13---------------------------12/14-12-10/12-10-10-|
D----9-11-9-11/13|--------13-11-9-11/13-----------------------------------------------------------|
A9h11------------|--------------------------------------------------------------------------------|
E----------------|--------------------------------------------------------------------------------|

e--------------------------------------------------------------------------------------------|
B--------------------------------------------------12-14-12-14/15-14-14/15-14-10-12-12~~~~~--|
G-------------------11-11-13-------------11h13-----------------------------------------------|
D-------9-11-9-11/13--------13-11-9-11/13----------------------------------------------------|
A---9h11-------------------------------------------------------------------------------------|
E--------------------------------------------------------------------------------------------|


Verse:
B-F#-E-F#(2x)

Rhythm Tabs for Verse
B F# E
2 2  0
4 2  0
4 3  1
4 4  2
2 x  2
x x  0

Refrain 1:
G-C-Am-F#

NOTE:Use Ordinary Chords for Refrain 1 and 2

Chorus:(INTRO CHORDS)

Verse:Do Chords

Refrain 2
G-C-Am-Em
G-C-Am-F#

Chorus2:Do Chords

AD LIB: B-F#-E(3x)
        G-A-G-A-B

Bridge:Refrain 2 Chords

Chorus 3: B-F#-E(3x)
          G-A-G-A-G-A-B-G-A-B
Tap to rate this tab
 
# A B C D E F G H I J K L M N O P Q R S T U V W X Y Z