Song name
# A B C D E F G H I J K L M N O P Q R S T U V W X Y Z

Efteling - De Vliegende Hollander tab

Ik heb hier alleen het eerste deuntje. Het is niet al te moeilijk, dus succes

-----------------------------------
Author: Efteling
Song: De Vliegende Hollander
Difficult: Novice
Standard Tuning: EADGBE
----------------------------------

Volgorde:
Riff1
Ending1
Riff1
Ending2
Riff2

Optie 1

Riff1
E|-----------5-6-------------------------5-6--------------|
B|------6--8--------8-6-8-5---------6--8------------------|
G|--5-7----------7----------7-5---7----------7------------|
D|--------------------------------------------------------|
A|--------------------------------------------------------|
E|--------------------------------------------------------|

Ending 1            Ending 2
E|---------------| |----------|
B|--8-6--8-5-----| |--6-5-6---|
G|---------------| |----------|
D|---------------| |----------|
A|---------------| |----------|
E|---------------| |----------|

Riff2
E|----------5-6-----------------------5-7-----5----------|
B|-----6--8--------8-6-8-5--------6-8-----8-----6-8-6----|
G|-5-7----------7----------7-5--7-----------7------------|
D|-------------------------------------------------------|
A|-------------------------------------------------------|
E|-------------------------------------------------------|
Tap to rate this tab
# A B C D E F G H I J K L M N O P Q R S T U V W X Y Z