Song name
# A B C D E F G H I J K L M N O P Q R S T U V W X Y Z

Efteling - Vogelrok tab

E|------------------11--12--15--11-----------------------------|
B|----------12--14------------------14--12---------------------|
G|--11--11----------------------------------14--11--11--9--11--|
D|-------------------------------------------------------------|
A|-------------------------------------------------------------|
E|-------------------------------------------------------------|



E|------------------11--12--14--11--14--19--17--14--|
B|----------12--14----------------------------------|
G|--11--11------------------------------------------|
D|--------------------------------------------------|
A|--------------------------------------------------|
E|--------------------------------------------------|



E|--7--7--6--4-----5--5--4--------------------|
B|--------------7-----------7--5--8--8--7--5--|
G|--------------------------------------------|
D|--------------------------------------------|
A|--------------------------------------------|
E|--------------------------------------------|



E|--14--11------11--14--14--14--14--14--14--|
B|----------12------------------------------|
G|------------------------------------------|
D|------------------------------------------|
A|------------------------------------------|
E|------------------------------------------|



E|------------------11--12--14--11--14--19--17--21---------------------------|
B|----------12--14----------------------------------12---12--12--12--12--12--|
G|--11--11-------------------------------------------------------------------|
D|---------------------------------------------------------------------------|
A|---------------------------------------------------------------------------|
E|---------------------------------------------------------------------------|
Tap to rate this tab
# A B C D E F G H I J K L M N O P Q R S T U V W X Y Z