Song name
# A B C D E F G H I J K L M N O P Q R S T U V W X Y Z

Efteling - Joris En De Draak tab

-------------------------------------------------------------------------------
                             Joris en de Draak - Efteling
-------------------------------------------------------------------------------
Tabbed by:Roel Vandenbroeck
E-mail:vandenbroeckroel@hotmail.com

Tuning:EADBGE

e|---------------------------------------------------------------------------|
B|---------------------------------------------------------------------------|
G|---------------------------------------12--12--10--9--10-------------------|
D|---------11--11--9------9----------11--------------------------------------|
A|--9--12-------------12-----11--12------------------------------------------|
E|---------------------------------------------------------------------------|

e|--15--14--15------17--15--14--------------12------12-----------------------|
B|--------------17--------------17--15----------12---------------------------|
G|--------------------------------------16-----------------------------------|
D|---------------------------------------------------------------------------|
A|---------------------------------------------------------------------------|
E|---------------------------------------------------------------------------|

e|---------------------------------------------------------------------------|
B|---------------------------------------------------------------------------|
G|---------------------------------------12--12--10--9--10-------------------|
D|---------11--11--9------9----------11--------------------------------------|
A|--9--12-------------12-----11--12------------------------------------------|
E|---------------------------------------------------------------------------|

************************************

| /   slide up
| \   slide down
| h   hammer-on
| p   pull-off
| ~   vibrato
| +   harmonic
| x   Mute note
| b   Bend
| pb  Pre-bend
| br  Bend release
| pbr Pre-bend release
| brb Bend release bend

************************************
Tap to rate this tab
# A B C D E F G H I J K L M N O P Q R S T U V W X Y Z