Guitaretab - guitar tabs
Song name
# A B C D E F G H I J K L M N O P Q R S T U V W X Y Z

Egypt Central - You Make Me Sick tab

This is you make me sick by Egypt central.
Drop D tuning.3 guitars i guess, only 2 when live. i hear 3.

1st E
2nd B
3rd G
4th D
5th A
6th D

 Guitar 1,intro/corus,2x:
|-------------------------------------------------------------------------|
|-------------------------------------------------------------------------|
|-7----7------------------------------------------------------------------|
|-7-6x-7-6x--10-10-10-10-10-10/11-8-8-8-8-8-8/9---------------------------|
|-5----5------------------------------------------------------------------|
|-5----5------------------------------------------------------------------|
 (He sings this in the corus..)You make me sick!...
 Guitar 2,intro/corus,2x:
|-------------------------------------------------------------------------|
|-------------------------------------------------------------------------|
|-------------------------------------------------------------------------|
|-7----7-----9--------------------5---------------------------------------|
|-7-6x-7-6x--9-6x-----------------5-6x------------------------------------|
|-7----7-----9--------------------5---------------------------------------|

 Guitar 1(has some effects, i dono wat though,fast),verse,8x:
|----------------------------------|--------------------------------------|
|----------------------------------|---the-8th-time-do--this--------------|
|----------------------------------|---after-the-7------------------------|
|-3-3-5-5-7-7-9-9-12-12-9-9-7-7-5-5|----------------12/-------------------|
|----------------------------------|--------------------------------------|
|----------------------------------|--------------------------------------|
 I use to think this....

 Guitar 2,verse(slow,listen carefully),1x:
|-------------------------------------------------------------------------|
|-------------------------------------------------------------------------|
|----8---6---8---------6--------------------------------------------------|
|---9---7---9----9----7----7----------------------------------------------|
|--7---5---7---------5----------------------------------------------------|
|-7---5---7---------5-----------------------------------------------------|
  2x  2x  2x        2x

 Corus(which was the intro):
 Guitar 1 4x
 Guitar 2 4x
 Verse  same amount of times as before which is(for people who don't look):
 Guitar 1 8x
 Guitar 2 1x
 Corus(same amount of times as before)

 Solo(easier than most,slow),Guitar 1,1x:
|-------------------------------------------------------------------------|
|---3--3---9--5----3----9----3----9----3----9-----------------------------|
|-2---2-2--------2---------2---------2------------------------------------|
|-------------------------------------------------------------------------|
|-------------------------------------------------------------------------|
|-------------------------------------------------------------------------|
             Delay in between them, listen and hear the delay.
[ Tab from: http://www.guitaretab.com/e/egypt-central/169261.html ]
 Under solo,Guitar 2,4x:
|-------------------------------------------------------------------------|
|-------------------------------------------------------------------------|
|-------------------------------------------------------------------------|
|-5--8--3--3-3-3-3-x-x-3-5-5-5-3-3-3--------------------------------------|
|-5--8--3--3-3-3-3-x-x-3-5-5-5-3-3-3--------------------------------------|
|-5--8--3--3-3-3-3-x-x-3-5-5-5-3-3-3--------------------------------------|
 Cause I need you, Cause I need you here with me...

 Under,under solo(slow,this part kicks in after the second time of guitar 2 ),Guitar 3,2x:
|-------------------------------------------------------------------------|
|-------------------------------------------------------------------------|
|--------------------10-9-------------------------------------------------|
|--5-4-5-7-7-7-5-4----------5-5-6-----------------------------------------|
|-5-----------------------------------------------------------------------|
|-------------------------------------------------------------------------|

 Bridge is same as the verse except there is no guitar 2, i listened but
nothing. Just bass and Guitar 1.

 Corus same amount of times as before

 Outro, 2x:
|-------------------------------------------------------------------------|
|-------------------------------------------------------------------------|
|-------------------------------------------------------------------------|
|-5----5----5----5----8---------------------------------------------------|
|-5-6x-5-6x-5-6x-5-6x-8---------------------------------------------------|
|-5----5----5----5----8---------------------------------------------------|
You make me Sick,Sick,Sick,Sick......

 Legend:
 slide up /
 G1       Guitar 1
 G2       Guitar 2
 G3       Guitar 3
 BG       Both Guitars
 US       Under solo

 Song Order:
 Intro/Corus G1:2x,G2:2x
 Verse       G1:8x,G2:1x
 Corus       G1:4x,G2:4x
 Verse       G1:8x,G2:1x
 Corus       G1:4x,G2:4x
 Solo/US     G1:1x,G2:4x,G3:2x
 Corus       G1:4x,G2:4x
 Outro       BG:2x

 Lyrics:
 Verse:
I used to think this was perfect, and wish that it was never ending
But those days are gone forever. It's something I'm not missing
There's a force there's a voice, in my head
Telling me to think about the times that you were cruel and mean
I donít care if you walk away Iím here to stay and you need to hear
  Corus:
You make me sick, but I love what we're doing here
You make me sick, and I can't be the only one
 Verse:
I have to take advantage before the moment passes by
It's so hard to manage the ups and downs of your life
Someone help someone speak before I start to scream out, anything to break the silence
holding me back confined by doubt

(Chorus)

 Solo:
Cause I need you, cause I need you here with me
When it falls through and Iím down upon my knees
 Bridge/verse:
There's a force there's a voice in my head telling me to
Think about everything last time I believed now I realize

(Chorus)

 Outro:
you make me sick sick sick sick sick sick sick you make me sick sick sick sick sick you
me sick sick sick sick sick sick sick

 Please no nasty comments, be nice.
Related for You Make Me Sick tab