Song name
# A B C D E F G H I J K L M N O P Q R S T U V W X Y Z

Egypt Central - Different chords

capo 1st fret

E|-------------------------|
B|----3h6-3----------------|
G|--2--------------3h5-2---|
D|-0-------------3-------3-|
A|-----------0-1-----------|
E|-------------------------|

the chords are Dm and F, capo 1st fret!

the heavy part after the intro is something like this:

E|------------------------------------------------|
B|----------66-33-11-3h6------------------------6-|
G|-77-77--------------------77-77-------------5---|
D|-77-77--3-----------------77-77--3----33--------|
A|-55-55--3-----------------55-55--3-------33-----|
E|--------1------------------------1-11-----------|


tab by DIGUITO
BRASIL!
Tap to rate this tab
 
# A B C D E F G H I J K L M N O P Q R S T U V W X Y Z