Song name
# A B C D E F G H I J K L M N O P Q R S T U V W X Y Z

Egypt Central - Backfire tab

Just the way i think its played... this is what it sounds like to me. :)

Intro and Verse:

Eb |--0----0----|
Bb |--0----0----|
Gb |--4----4----|
Db |--2----2- --| x3
Ab |--4----0----|
Eb |--x----x----|


Chorus:

Eb |--0----0-----0----|
Bb |--0----0-----0----|
Gb |--4----4-----4----|
Db |--2----4- ---2----| x3
Ab |--4----2-----0----|
Eb |--x----x-----x----|

Pre chorus and Bridge are the same as Version 1
Tap to rate this tab
# A B C D E F G H I J K L M N O P Q R S T U V W X Y Z