Song name
# A B C D E F G H I J K L M N O P Q R S T U V W X Y Z

Egypt Central - Kick Ass tab

Drop d tuning.
Intro
---------------------------------|
---------------------------------|
---------------------------------|   X2
2--------2------2----------------|
---------------------------------|
-2-22-2-2----2-2-2-5-7-----------|

---------------------------------------------|
---------------------------------------------|
---------------------------------------------|   X2 Pre Verse
5-2-0-2-0-5-2-XX-X---2-0022--5-7-------------|
5-2-0-2-0-5-2-XX-X---2-0022--5-7-------------|
5-2-0-2-0-5-2-XX-X---2-0022--5-7-------------|

-------------------------------|
-------------------------------|
-------------------------------|   X2 Verse
2-2-2-2---5s2-2-2-2---5--------|
2-2-2-2---5s2-2-2-2---5--------|
2-2-2-2---5s2-2-2-2---5--------|

-----------------------------------------|
-----------------------------------------|
-----------------------------------------|   X2 Pre Chorus
---------------------------------------2-|
-7-5-----------0-5---7-5-----------2-----|
0---7-5-7-7-5-----0----7-5-7-5s2---------|

--------------------------------------------------|
--------------------------------------------------|
--------------------------------------------------|   X4 Chorus
5-2-0-2-0-5-2--12/0---00225520--5-7---------------|
5-2-0-2-0-5-2--12/0---00225520--5-7---------------|
5-2-0-2-0-5-2--12/0---00225520--5-7---------------|

-------------|
-------------|
-------------|   X1
2-2-2-2------|
2-2-2-2------|
2-2-2-2------|

Verse X2

Pre Chorus X2

Chorus X4 End this one with a ringing
-
-
-
2
2
2

       --------------------------------------------------|
       --------------------------------------------------|
PM  -----------------------------------------------------|   X3
       00000000-000000-0 then open on 2
       00000000-000000-0-------------------------------2-|
       00000000-000000-0-------------------------------2-|

On 4th play
----------|
----------|
----------|
0-2-5-2---|
0-2-5-2---|
0-2-5-2---|

Play those two together twice

I don't know entire solo, but here's what I know. If anyone tabs out the rest, I'd 
really like to know so I can play it myself...

-----------------------------------------------------------------------|
----------------------------------------10-10-12-10--------------------|
12--9---9--12--9---9--12--9---9-----------------14-12---12-------------|
------12-----------12-----------12-------------------------------------|
-----------------------------------------------------------------------|
-----------------------------------------------------------------------|

And the rest of solo I don't know

-----------------------------------------------------------------|
-----------------------------------------------------------------|
-----------------------------------------------------------------|   X4
5-2-0-2-0-5-2-0-2-0-55555555777710101010-------------------------|
5-2-0-2-0-5-2-0-2-0-55555555777710101010-------------------------|
5-2-0-2-0-5-2-0-2-0-55555555777710101010-------------------------|

-------------------------|
-------------------------|
-------------------------|
12/0-2200220-5-7---------|
12/0-2200220-5-7---------|
12/0-2200220-5-7---------|

Verse X7

-------------|
-------------|
-------------|   X3
2-2-2-2------|
2-2-2-2------|
2-2-2-2------|

-------------------|
-------------------|
-------------------|
5-2-0-2-0-5-2------|
5-2-0-2-0-5-2------|
5-2-0-2-0-5-2------|

Okay, so not only is the first tab I've ever posted, but its the first song I've done 
myself so let me know if you see any mistakes. And if you know rest of solo please let me 
know. Let me know what you think of it and happy playing!
Tap to rate this tab
# A B C D E F G H I J K L M N O P Q R S T U V W X Y Z