Song name
# A B C D E F G H I J K L M N O P Q R S T U V W X Y Z

Eiffel 65 - Blue Da Ba Dee tab

Help us improve GuitareTab! Take a short survey!
The one riff listed here is repeated throughout. There is a miniature run after the part 
played once but I have not figured it out so far

Play Order:

Verse1
e |----------------------------------------------|
B |------------1----------------3-4----3-1-------|
G|---3----0-3-------2-3----0-3-----(0)-----------|   x3
D|-----(0)--------(3)-----(0)--------------------|
A |----------------------------------------------|
E |----------------------------------------------|
(1)Yo listen           up,        here's a story,  about a little
(2)     guy     that lives        in a blue world.      And all
(3)     day and all night and everything he sees is just

e |----------------------|------------------|
B |----------------------|------------------|
G|--3----0-3-2----------| ------------2-----|
D|----(0)-------(3)-0-5---|--3-5---3-5------|
A |----------------------|------------------|
E |----------------------|------------------|
        blue.   Like  him           inside    and outside

e |----------------------------------------------|
B |------------1----------------3-4----3-1-------|
G|---3----0-3-------2-3----0-3-----(0)-----------|   x3
D|-----(0)--------(3)-----(0)--------------------|
A |----------------------------------------------|
E |----------------------------------------------|
(1)     Blue     his    house with a       blue little window and a
(2)     blue Corvette          and everything is blue for him
(3)           and his-self     and everybody around cus he ain't

e |-------------------------|
B |-------------------------|
G|--3----0-3-2--------------|
D|----(0)-------(3)-0-5-----|
A |-------------------------|
E |-------------------------|
        got           nobody        to listen....(listen,listen,listen,listen)

Chorus
(Vocal solo for first 8 lines)

I'm blue da ba dee da ba dei
da ba dee da ba dei
da ba dee da ba dei
da ba dee da ba dei
da ba dee da ba dei
da ba dee da ba dei
da ba dee da ba dei

e |----------------------------------------------|
B |------------1----------------3-4----3-1-------|
G|---3----0-3-------2-3----0-3-----(0)-----------|   x3
D|-----(0)--------(3)-----(0)--------------------|
A |----------------------------------------------|
E |----------------------------------------------|
1) I'm blue  da ba dee da ba dei           da ba dee    da ba
2)       dei     da ba dee da ba dei           da ba dee    da ba
3)       dei    da ba dee  da ba dei           da ba dee    da ba

e |----------------------|------------------|
B |----------------------|------------------|
G|--3----0-3-2----------| ---------0--2-----|
D|----(0)-------(3)-0-5---|-----------------|
A |----------------------|------------------|
E |----------------------|------------------|
       dei       da ba dee da ba dei


Fill
e |----------------------------------------------|
B |------------1----------------3-4----3-1-------|
G|---3----0-3-------2-3----0-3-----(0)-----------|   x3
D|-----(0)--------(3)----------------------------|
A |----------------------------------------------|
E |----------------------------------------------|

e |----------------------|---------------------|
B |----------------------|---------------------|
G|--3----0-3-2----------| ---------------------|
D|----(0)-------(3)-0-5---|-(5)-(5)-(5)-(5)----|
A |----------------------|---------------------|
E |----------------------|---------------------|

Verse 2
(Backed by Bass)
I have a blue house with a blue window,
Blue is the colour of all that I wear,
Blue are the streets and all the trees are too,
I have a girlfriend, and she is so blue.

Blue are the people here that walk around,
Blue like my Corvette it's sitting outside,
Blue are the words I say and what I think,
Blue are the feelings that live inside me.

Chorus 2
e |----------------------------------------------|
B |------------1----------------3-4----3-1-------|
G|---3----0-3-------2-3----0-3-----(0)-----------|   x3
D|-----(0)--------(3)-----(0)--------------------|
A |----------------------------------------------|
E |----------------------------------------------|
1) I'm blue  da ba dee da ba dei           da ba dee    da ba
2)       dei     da ba dee da ba dei           da ba dee    da ba
3)       dei    da ba dee  da ba dei           da ba dee    da ba

e |-------------------------|
B |-------------------------|
G|--3----0-3-2--------------|
D|----(0)-------(3)-0-5-----|
A |-------------------------|
E |-------------------------|
       dei       da ba dee da ba dei

e |----------------------------------------------|
B |------------1----------------3-4----3-1-------|
G|---3----0-3-------2-3----0-3-----(0)-----------|   x3
D|-----(0)--------(3)-----(0)--------------------|
A |----------------------------------------------|
E |----------------------------------------------|
1) I'm blue  da ba dee da ba dei           da ba dee    da ba
2)       dei     da ba dee da ba dei           da ba dee    da ba
3)       dei    da ba dee  da ba dei           da ba dee    da ba

e |----------------------|------------------|
B |----------------------|------------------|
G|--3----0-3-2----------| ------------------|
D|----(0)-------(3)-0-5---|----------0-2----|
A |----------------------|------------------|
E |----------------------|------------------|
       dei       da ba dee da ba dei.    Inside and outside

Verse 3
e |----------------------------------------------|
B |------------1----------------3-4----3-1-------|
G|---3----0-3-------2-3----0-3-----(0)-----------|   x3
D|-----(0)--------(3)-----(0)--------------------|
A |----------------------------------------------|
E |----------------------------------------------|
(1)     Blue     his    house with a       blue little window and a
(2)     blue Corvette          and everything is blue for him
(3)           and his-self     and everybody around cus he ain't

e |-------------------------|
B |-------------------------|
G|--3----0-3-2--------------|
D|----(0)-------(3)-0-5-----|
A |-------------------------|
E |-------------------------|
        got           nobody        to listen....(listen,listen,listen)

Chorus 3
(Same as Chorus 2)
e |----------------------------------------------|
B |------------1----------------3-4----3-1-------|
G|---3----0-3-------2-3----0-3-----(0)-----------|   x3
D|-----(0)--------(3)-----(0)--------------------|
A |----------------------------------------------|
E |----------------------------------------------|
1) I'm blue  da ba dee da ba dei           da ba dee    da ba
2)       dei     da ba dee da ba dei           da ba dee    da ba
3)       dei    da ba dee  da ba dei           da ba dee    da ba

e |-------------------------|
B |-------------------------|
G|--3----0-3-2--------------|
D|----(0)-------(3)-0-5-----|
A |-------------------------|
E |-------------------------|
       dei       da ba dee da ba dei

e |----------------------------------------------|
B |------------1----------------3-4----3-1-------|
G|---3----0-3-------2-3----0-3-----(0)-----------|   x3
D|-----(0)--------(3)-----(0)--------------------|
A |----------------------------------------------|
E |----------------------------------------------|
1) I'm blue  da ba dee da ba dei           da ba dee    da ba
2)       dei     da ba dee da ba dei           da ba dee    da ba
3)       dei    da ba dee  da ba dei           da ba dee    da ba

e |----------------------|------------------|
B |----------------------|------------------|
G|--3----0-3-2----------| ------------------|
D|----(0)-------(3)-0-5---|----------0-2----|
A |----------------------|------------------|
E |----------------------|------------------|
       dei       da ba dee da ba dei.

Fill 2
(Same as FIll)
e |----------------------------------------------|
B |------------1----------------3-4----3-1-------|
G|---3----0-3-------2-3----0-3-----(0)-----------|   x3
D|-----(0)--------(3)----------------------------|
A |----------------------------------------------|
E |----------------------------------------------|

e |----------------------|---------------------|
B |----------------------|---------------------|
G|--3----0-3-2----------| ---------------------|
D|----(0)-------(3)-0-5---|-(5)-(5)-(5)-(5)----|
A |----------------------|---------------------|
E |----------------------|---------------------|

Tabbed by James Cushing
Related for Blue Da Ba Dee tab