Song name
# A B C D E F G H I J K L M N O P Q R S T U V W X Y Z

Eiffel 65 - Im Blue tab

Its the piano part at the beginning of the song.

e--------------------------------------------------|
B--------------13-------------------15-16----15-13-|
G--15----12-15-------14-15----13-15-------14-------| (x3)
D-----12----------15-------------------------------|
A--------------------------------------------------|
E--------------------------------------------------|

e--------------------------|
B--------------13----------|
G--15----12-15-------14-13-|
D-----12----------15-------|
A--------------------------|
E--------------------------|
Tap to rate this tab
 
# A B C D E F G H I J K L M N O P Q R S T U V W X Y Z