Song name
# A B C D E F G H I J K L M N O P Q R S T U V W X Y Z

Eiffel 65 - Blue tab

Out of the kindness of my heart here is the intro, the rest of the song is mine.
The lyrics are a bit butchered but so are they in the song.

Yo listen up, hereis a story abo'alil
E|------------------------------------|
B|-------------------------3-4--------|
G|---3-----3-5---2-3-----3-------7-5--|
D|-------5-----3-------5--------------|
A|-----5---------------------3--------|
D|---5-------3---0---5---3-----5------|

  Guy th'livesinablueworl &allday&alln
E|------------------------------------|
B|-------------------------3-4--------|
G|---3-----3-5---2-3-----3-------7-5--|
D|-------5-----3-------5--------------|
A|-----5---------------------3--------|
D|---5-------3---0---5---3-----5------|

  Nightan'everything he  sees isjust
E|------------------------------------|
B|-------------------------3-4--------|
G|---3-----3-5---2-3-----3-------7-5--|
D|-------5-----3-------5--------------|
A|-----5---------------------3--------|
D|---5-------3---0---5---3-----5------|

  Blue likehim inside&outside
E|----------------------------|
B|----------------------------|
G|---3----3-2--2-0---------2--|
D|-------5---------3-5-3-5----|
A|-----5------3---------------|
D|---5------3----1------------|

   Bluehis housewith abluelilwindow&a
E|------------------------------------|
B|-------------------------3-4--------|
G|---3-----3-5---2-3-----3-------7-5--|
D|-------5-----3-------5--------------|
A|-----5---------------------3--------|
D|---5-------3---0---5---3-----5------|

    Bluecorvette an'everythngisblufor
E|------------------------------------|
B|-------------------------3-4--------|
G|---3-----3-5---2-3-----3-------7-5--|
D|-------5-----3-------5--------------|
A|-----5---------------------3--------|
D|---5-------3---0---5---3-----5------|

    Him&himself &evrybdyaround cozheaint
E|------------------------------------|
B|-------------------------3-4--------|
G|---3-----3-5---2-3-----3-------7-5--|
D|-------5-----3-------5--------------|
A|-----5---------------------3--------|
D|---5-------3---0---5---3-----5------|

E|-------------------|
B|-------------------|
G|---3-----3-2--2-0--|
D|-------5-----------|
A|-----5-------3-----|
D|---5-------3----5--|

The rest of the song will come as I complete it. (c:
Tap to rate this tab
 
# A B C D E F G H I J K L M N O P Q R S T U V W X Y Z