Song name
# A B C D E F G H I J K L M N O P Q R S T U V W X Y Z

Eiffel 65 - Blue tab

e----------------------------------10-11----10-13-11-------------|
B-10-11-------11-13----10-11----11-------------------------------|
G----------12-------10-------12----------12----------------------|
D-------12-------------------------------------------------------|
A----------------------------------------------------------------|
E----------------------------------------------------------------|

e----------------------------10-11----10-13-11-------------------|
B-------11-13----10-11----11-------------------------------------|
G----12-------10-------12----------12----------------------------|
D-12-------------------------------------------------------------|
A----------------------------------------------------------------|
E----------------------------------------------------------------|

e----------------------------10-11----10-13-11-------------------|
B-------11-13----10-11----11-------------------------11-10-------|
G----12-------10-------12----------12-------------12-------11-13-|
D-12-------------------------------------------12----------------|
A----------------------------------------------------------------|
E----------------------------------------------------------------|

ver2

e-5-6-----6-8---5-6---6-10-11---10-8-6---------------------------|
B-------8-----6-----8---------8----------------------------------|
G-----7----------------------------------------------------------|
D----------------------------------------------------------------|
A----------------------------------------------------------------|
E----------------------------------------------------------------|

e---------6-8---5-6---6-10-11---10-8-6---------------------------|
B-------8-----6-----8---------8----------------------------------|
G-----7----------------------------------------------------------|
D----------------------------------------------------------------|
A----------------------------------------------------------------|
E----------------------------------------------------------------|

e---------6-8---5-6---6-10-11---10-8-6-----6-5-------------------|
B-------8-----6-----8---------8----------8-----6-8---------------|
G-----7--------------------------------7-------------------------|
D----------------------------------------------------------------|
A----------------------------------------------------------------|
E----------------------------------------------------------------|
Tap to rate this tab
 
# A B C D E F G H I J K L M N O P Q R S T U V W X Y Z