Song name
# A B C D E F G H I J K L M N O P Q R S T U V W X Y Z

Eiffel 65 - Im Blue tab

You just repeat this through out the entire song pretty much...

Tuned to: E A D G B e
Song: I'm Blue
Artist: Eiffel 65
Type: Guitar Tab
Part: Almost all of song
Difficulty: Easy

E-------------------------------|
B---------1---------------------|
G-3---0-3-----2-3---------------|
D---0-------3-------------------|
A-------------------------------|
E-------------------------------|

E----------------------------------|
B-----3-4---3-1---------1----------|
G-0-3-----0-----3---0-3-----2-3----|
D-----------------0-------3--------|
A----------------------------------|
E----------------------------------|

E----------------------------------|
B-----3-4---3-1--------------------|
G-0-3-----0-----3---0-3-2---0-0----|
D-----------------0-------0--------|
A----------------------------------|
E----------------------------------|
Tap to rate this tab
 
# A B C D E F G H I J K L M N O P Q R S T U V W X Y Z