Song name
# A B C D E F G H I J K L M N O P Q R S T U V W X Y Z

Eight Legs - Wear That Shirt tab

one of my favourites, so here it is:

song: wear that shirt
band: eight legs
album: searching for the simple life
http://www.eightlegs.co.uk/
http://www.myspace.com/eightlegs

intro & chorus:
e|-----------------------------------------------------------------------|
H|-----------------------------------------------------------------9-9-9-|
G|-9-9-9---------------9-9-9---------------9-9-9---------------9-9-9-9-9-|
D|-9-9-9-0-7---9--(0)--9-9-9-0-7---9--(0)--9-9-9-0-7---9--(0)--9-9-9-9-9-|
A|-7-7-7-0-7---9--(0)--7-7-7-0-7---9--(0)--7-7-7-0-7---9--(0)--7-7-7-7-7-|
E|---------5---7---------------5---7---------------5---7-----------------|

verse:
e|-------------------------------------7-------|
H|/9-7---7---7-9-7---7---7-9-7---7---7---7-9-7-|
G|-----9---9-------9---9-------9---9-----------|
D|---------------------------------------------|
A|---------------------------------------------|
E|---------------------------------------------|

bridge/solo (0:55.min):
   _/play notes as fast and as often as you can\_
  /                                              \
e|--------------------------------777777779999999997-797-797-7977777~|
H|9999999977777777--------777777779-----------------9---9---9--------|
G|----------------99999999-------------------------------------------|
D|-------------------------------------------------------------------|
A|-------------------------------------------------------------------|
E|-------------------------------------------------------------------|


the end

thx, and goodbye!

PS: please rate, and if you have questions: angus_nr.2@hotmail.com
Tap to rate this tab
# A B C D E F G H I J K L M N O P Q R S T U V W X Y Z