Song name
# A B C D E F G H I J K L M N O P Q R S T U V W X Y Z

Eighteen Visions - Our Darkest Days tab

-----------2-----------------------2-------------------------|
--4-----4-----4-----4-----2-----2-----2-----2----------------|
-----4-----------4-----4-----4-----------4-----4-------------|
-------------------------------------------------------------|
-------------------------------------------------------------|
-------------------------------------------------------------|
Play 2x

-----------2-----------------------2-------------------------|
--4-----4-----4-----4-----2-----2-----2-----2----------------|
-----3-----------3-----3-----3-----------3-----3-------------|
-------------------------------------------------------------|
-------------------------------------------------------------|
-------------------------------------------------------------|
Play 2x, repeat from beginning
Tap to rate this tab
# A B C D E F G H I J K L M N O P Q R S T U V W X Y Z