Song name
# A B C D E F G H I J K L M N O P Q R S T U V W X Y Z

Eighteen Visions - Of Ain tab

EIGHTEEN VISIONS - OF PAIN

C#|---------------------|
G#|---------------------|
 E|---------------------| 
 B|---0--4--0--1--1-1-1-| x8
F#|-0-0--4--0--1--1-1-1-|
 B|-0-0--4--0--1--1-1-1-|
   PM

C#|---------------------------------|
G#|---------------------------------|
 E|---------------------------------| 
 B|-------------------4-4-4-4-1-1-1-| x8
F#|-4-3-1-3-1-0-1-0-0-4-4-4-4-1-1-1-|
 B|-4-3-1-3-1-0-1-0-0-4-4-4-4-1-1-1-|
    P M P M P M P MPM

C#|------------------------------|
G#|------------------------------|
 E|------------------------------| 
 B|-7---6-------6-6--6-6--6-6--6-| 
F#|-6---5-------5-5--5-5--5-5--5-|
 B|------------------------------|

C#|----------------------------------------|
G#|----------------------------------------|
 E|----------------------------------------| 
 B|-7---6-------6-6--6-6--6-6--6-6--6-6--6-| 
F#|-6---5-------5-5--5-5--5-5--5-5--5-5--5-|
 B|----------------------------------------|

C#|------------------------------------|
G#|------------------------------------|
 E|------------------------------------| 
 B|-7---6-----6--6-6--6-6--6-6--6-6--6-| 
F#|-6---5-----5--5-5--5-5--5-5--5-5--5-|
 B|------------------------------------|

C#|-------------------------------|
G#|-------------------------------|
 E|----------------9----10---6----| 
 B|-7--6--------------------------| 
F#|-6--5-----------7----8----4----|
 B|-------------------------------|

C#|----------------------------|
G#|----------------------------|
 E|----------------------------| 
 B|-----------------0------3h4-| x8
F#|-4-3-4-3-1-3-0-1-0--0-0-----|
 B|-4-3-4-3-1-3-0-1-0--0-0-----|
    P M P M P M P M    P M

C#|-------------------------------|
G#|-------------------------------|
 E|-------------------------------| 
 B|-1p0---0-0---1p0---0-0---1/4-4-| x10
F#|-1p0-0-0-0-0-1p0-0-0-0-0-1/4-4-|
 B|-1p0-0-0-0-0-1p0-0-0-0-0-1/4-4-|
       PM    PM    PM    PM

C#|-------|
G#|-------|
 E|-------| 
 B|-8--8--| 
F#|-7--7--|
 B|-------|

C#|---------------------|
G#|---------------------|
 E|---------------------| 
 B|---0--4--0--1--1-1-1-| x8 
F#|-0-0--4--0--1--1-1-1-|
 B|-0-0--4--0--1--1-1-1-|
   PM

C#|---------------------------------|
G#|---------------------------------|
 E|---------------------------------| 
 B|-------------------4-4-4-4-1-1-1-| x8
F#|-4-3-1-3-1-0-1-0-0-4-4-4-4-1-1-1-|
 B|-4-3-1-3-1-0-1-0-0-4-4-4-4-1-1-1-|
    P M P M P M P MPM
Tap to rate this tab
# A B C D E F G H I J K L M N O P Q R S T U V W X Y Z