Song name
# A B C D E F G H I J K L M N O P Q R S T U V W X Y Z

Eighteen Visions - Fashion Show tab

this is a great song from 'Vanity'. pick it up...
i'm a little stumped on the tuning it could be either A# F A# D# G C 
or B F# B E G# C#

here goes...

Intro
w/heavy distortion
|-----------------------------------------------------------------|
|-----------------------------------------------------------------|
|-----------------------------------------------------------------|
|----7------------------------------------------------------------|
|--6-5-X-X-X-X-X-X-X-X-3-X-X-1-X-3--------------------------------|
|--6-5-X-X-X-X-X-X-X-X-3-X-X-1-X-3--------------------------------|

Verse 1
|-----------------------------------------------------------------|
|-----------------------------------------------------------------|
|-----------------------------------------------------------------|
|----7----7-------------------------------------------------------|
|--6-5--6-5--0-1-0-0-0-1-0-1--------------------------------------|
|--6-5--6-5--0-1-0-0-0-1-0-1--------------------------------------|
P.M          -   - - -   -

Verse 2 
|-----------------------------------------------------------------|
|-----------------------------------------------------------------|
|-----------------------------------------------------------------|
|----7----7-------------------------------------------------7-----|
|--6-5--6-5--0-1-0-0-0-1-0-1--0--0-0-0-0-0-0-3-0-0-1-0-3--6-5-----|
|--6-5--6-5--0-1-0-0-0-1-0-1--0--0-0-0-0-0-0-3-0-0-1-0-3--6-5-----|
P.m          -   - - -   -       - - - - - -   - -   - 

i haven't figured out the rest...i will try though. enjoy this bit, though!
Tap to rate this tab
# A B C D E F G H I J K L M N O P Q R S T U V W X Y Z