Song name
# A B C D E F G H I J K L M N O P Q R S T U V W X Y Z

Eighteen Visions - I Should Tell You tab

Eighteen Visions song I should tell you off the album "Obsession"
Tuning-Entire Guitar down one halfstep and low E is tuned to s drop D
Tabbed by Tabbmastercammi

     Most part played
e/-------------------------------------------------------]
B/-------------------------------------------------------/
G/-5--5------5-------------------------------------------/
d/-5--5--5--------7--7----3--3----5--5-------------------/
A/-3--3-3--3---3--7--7----3--3----5--5-------------------/
D/----------------7--7----3--3----5--5-------------------/

     bridge
e/--------------------------------------------------------/
B/--------------------------------------------------------/
G/--------------------------------------------------------/
d/--------------------------------------------------------/
A/--5-5-5-5-5--3-3-3-3-3--1-1-1-1-1-----------------------/
D/--5-5-5-5-5--3-3-3-3-3--1-1-1-1-1-----------------------/
Tap to rate this tab
# A B C D E F G H I J K L M N O P Q R S T U V W X Y Z