Song name
# A B C D E F G H I J K L M N O P Q R S T U V W X Y Z

Eighteen Visions - Tonightless tab

k this is my first tab so please be nice...and rate...thanks much!

-------------------------------------------------------------------------------
			     tonightless - eighteen visions!
-------------------------------------------------------------------------------
Tabbed by:emokidsdelirium
Email:emokidsdelirium88@yahoo.com

Tuning:eadgbe

e|----------------------------------------------------|
B|----------------------------------------------------|
G|----------------------------------------------------|
D|----6---------6--------6----------------------------|
A|--7----7---6-----6---4---4------7-------------------|
E|------------------------------5---5-----------------|


e|----------------------------------------------------|
B|----------------------------------------------------|
G|----------------------------------------------------|
D|----6---------6--------6----------------------------|
A|--7----7---6-----6---4---4------7-------------------|
E|------------------------------5---5-----------------|

e|------------------------------------------------|
B|------------------------------------------------|
G|------------------------------------------------|
D|---6-------6------6/9---7-----------------------|
A|-7-7----6--6------4/7---7-----------------------|
E|------------------------5-----------------------|


===============================================================================
Tap to rate this tab
# A B C D E F G H I J K L M N O P Q R S T U V W X Y Z