Song name
# A B C D E F G H I J K L M N O P Q R S T U V W X Y Z

Einherjer - Naar Aftensolen Rinne tab

EINHERJER
"Naar Aftensolen Rinner" from album Far Far North

Sorry, but I tabbed only the intro riff. Maybe later I tab the whole
song.

Riff 1
E-|-----------------------------------------------------|
B-|-----------------------------------------------------|
G-|-----------------------------------------------------|
D-|----------2------------------------------------------|
A-|----0-3-2---5-3-0-2----0-2-3-2-0-----0---------------|
E-|--0------------------0-----------3-5-----------------|

E-|-----------------------------------------------------|
B-|-----------------------------------------------------|
G-|-----------------------------------------------------|
D-|----------2------------------------------------------|
A-|----0-3-2---5-3-0-2--2-3-5-3-2---2-3-2-0---0---------|
E-|--0----------------------------3---------3-----------|
Tap to rate this tab
# A B C D E F G H I J K L M N O P Q R S T U V W X Y Z