Song name
# A B C D E F G H I J K L M N O P Q R S T U V W X Y Z

Eisblut - Schlachtwerk tab

Eisblut - Schlachtwerk
Album: Schlachtwerk

Fast das ganze Lied, es fehlt nur das "Solo" und der begleitende Akkustik-Part!


Drop-D

Distortion
Riff 1 (Intro/Chorus):
e|---------------------------------------------------| 
b|---------------------------------------------------|
G|---------------------------------------------------|
D|---5---------------------0-------------------------|
A|---5-6666-5555-6666------0-0000-1111-0000----------|
D|---5---------------------0-------------------------|


Distortion
Riff 2 (Verse):
e|--------------------------------------| 
b|--------------------------------------|
G|--------------------------------------|
D|--------------------------------------|
A|--5p0-5p0-5p0-5p0-5p0-5p0--10-8-10-8--|
D|--------------------------------------|


Distortion
Riff 3 (Bridge 1):
e|--------------------------------------| 
b|--------------------------------------|
G|--------------------------------------|
D|--0--0--------------------------------|
A|--0--0--------------------------------|
D|--0--0-0-0-0-8p0-0-7p0-0-8-7----------|
PM  .    . . .     .     .

Distortion
Riff 4 (Bridge 2):
e|--------------------|\                e|-----|  
b|--------------------| |               b|-----|  
G|--------------------|  \              G|-----|
D|--------------------|  / trem.-Pick   D|--0--|
A|--------------------| |               A|--0--|
D|---0---3---5---1----|/                D|--0--|
PM   .   .   .   . 


Riff 1: 4x
Riff 2: 4x
Riff 1: 4x
Riff 2: 4x
Riff 3: 8x
Riff 4: 4x
Riff 1: 4x 
Riff 2: 4x
Riff 1: 4x
Riff 2: 4x      

VIEL SPASS DAMIT!                        


Tabbed by dennisglahn@gmx.de
Tap to rate this tab
# A B C D E F G H I J K L M N O P Q R S T U V W X Y Z