Song name
# A B C D E F G H I J K L M N O P Q R S T U V W X Y Z

Eisblut - Silbersarg tab

Interpret: Eisblut
Homepage: http://www.fleischhaus.de/eisblut/
Tuning: Drop D


Intro /clean

e|-------------------------------------------------------------------|
h|-------------------------------------------------------------------|
g|-----7-------7--------3-------3-------5-------5-------5-------5----|
D|---5---5---5---5----1---1---1---1---3---3---3---3---3---3---3---3--|  x 6
A|-5-------5--------1-------1-------3-------3-------3-------3--------|
D|-------------------------------------------------------------------|



The little Solo (thanx to Marius Lang)

e|-------------------14------------------------------|
h|--12-14-15-14-12-----15-------17-14----12----------|
g|---------------------------------------------14----|
D|---------------------------------------------------|
A|---------------------------------------------------|
D|---------------------------------------------------|

Riff 1 /clean

e|---------------------------------|
h|---------------------------------|
g|---------------------------------|
D|---------------------------------|  x 1
A|-3333333355555666----------------|
D|------------------555555555555---|


Riff 2 /Distortion

e|---------------------------------|
h|---------------------------------|
g|-5555555577777888----------------|
D|-xxxxxxxxxxxxxxxx-5--555555555---|  x 4
A|-3333333355555666-5--555555555---|
D|------------------5--555555555---|
                          ...PM...  

Chorus / with Distortion

e|--------------------------------------------------------|
h|--------------------------------------------------------|
g|--------------------------------------------------------|
D|-5------8------0---000000---10------5------8---888888---|  x 2
A|-5------8------0---000000---10------5------8---888888---|
D|-5------8------0---000000---10------5------8---888888---|
                     ..PM..                      ..PM..



Repeat Intro clean  4x
Repeat Riff 2       4x
Repeat Chorus       2x
Repeat Intro with Distoriton  4x
Repeat Riff 1       1x
Repeat Riff 2       4x
Repeat Chorus       2x 


Let ring out with:

e|---|
h|---|
g|---|
D|-5-|
A|-5-|
D|-5-|


Tap to rate this tab
 
# A B C D E F G H I J K L M N O P Q R S T U V W X Y Z