Song name
# A B C D E F G H I J K L M N O P Q R S T U V W X Y Z

Eisbrecher - Exzess Express tab

Eisbrecher Exzess Express Guitar Tab Drop-DADGBE

Intro
E--------------------------------------|
B--------------------------------------|
G--------------------------------------|
D------7-----5---7------6---5---5-/-3--|
A------5-----3---5------6---5---5-/-3--|
D--0-0---0-0---0----0-0-6-0-5-0-5-/-3--| x3
PM . .   . .   .    . .   .   .

E---------------------------------------|
B---------------------------------------|
G---------------------------------------|
D------7-----5---7---3-/-6-6-5-5-3-0----|
A------5-----3---5---3-/-6-6-5-5-3-0----|
D--0-0---0-0---0---0-3-/-6-6-5-5-3-0----| x1
PM . .   . .   .   .

E--------------------------------------|
B--------------------------------------|
G--------------------------------------|
D------7-----5---7------6---5---5-/-3--|
A------5-----3---5------6---5---5-/-3--|
D--0-0---0-0---0----0-0-6-0-5-0-5-/-3--| x3
PM . .   . .   .    . .   .   .

E---------------------------------------|
B---------------------------------------|
G---------------------------------------|
D------7-----5---7---3-/-6-6-5-5-3-0----|
A------5-----3---5---3-/-6-6-5-5-3-0----|
D--0-0---0-0---0---0-3-/-6-6-5-5-3-0----| x1
PM . .   . .   .   .
_______________________________________________________________________________________

E-------------------|
B-------------------|
G-------------------|
D--3-/-6-6-5-5-3-0--|
A--3-/-6-6-5-5-3-0--|
D--3-/-6-6-5-5-3-0--| x1
_______________________________________________________________________________________

E-------------------|
B-------------------|
G-------------------|
D--3-/-6-6-5-5-3-0--|
A--3-/-6-6-5-5-3-0--|
D--3-/-6-6-5-5-3-0--| x2

E---------------------------------------|
B---------------------------------------|
G--8-8-8-8-8-8-8-8-8-5-5-5-5-5-5-5-5-5--|
D--6-6-6-6-6-6-6-6-6-3-3-3-3-3-3-3-3-3--|
A--6-6-6-6-6-6-6-6-6-3-3-3-3-3-3-3-3-3--|
D--6-6-6-6-6-6-6-6-6-3-3-3-3-3-3-3-3-3--| x1

E--------------------------------------|
B--------------------------------------|
G--------------------------------------|
D------7-----5---7------6---5---5-/-3--|
A------5-----3---5------6---5---5-/-3--|
D--0-0---0-0---0----0-0-6-0-5-0-5-/-3--| x2
PM . .   . .   .    . .   .   .

E---------------------------------------|
B---------------------------------------|
G--8-8-8-8-8-8-8-8-8-5-5-5-5-3-3-3-3-3--|
D--6-6-6-6-6-6-6-6-6-3-3-3-3-1-1-1-1-1--|
A--6-6-6-6-6-6-6-6-6-3-3-3-3-1-1-1-1-1--|
D--6-6-6-6-6-6-6-6-6-3-3-3-3-1-1-1-1-1--| x1

E--------------------------------------|
B--------------------------------------|
G--------------------------------------|
D------7-----5---7------6---5---5-/-3--|
A------5-----3---5------6---5---5-/-3--|
D--0-0---0-0---0----0-0-6-0-5-0-5-/-3--| x3
PM . .   . .   .    . .   .   .

E---------------------------------------|
B---------------------------------------|
G---------------------------------------|
D------7-----5---7---3-/-6-6-5-5-3-0----|
A------5-----3---5---3-/-6-6-5-5-3-0----|
D--0-0---0-0---0---0-3-/-6-6-5-5-3-0----| x1
PM . .   . .   .   .
_______________________________________________________________________________________

E-------------------|
B-------------------|
G-------------------|
D--3-/-6-6-5-5-3-0--|
A--3-/-6-6-5-5-3-0--|
D--3-/-6-6-5-5-3-0--| x1

E-----------------------------------------------|
B-----------------------------------------------|
G-----------------------------------------------|
D-----------------------------------------------|
A------5-----3---5-----------------6-----5---6--|
D--0-0---0-0---0---------------0-0---0-0---0----| x2
PM . .   . .   .               . .   . .   .

E-------------------|
B-------------------|
G-------------------|
D--3-/-6-6-5-5-3-0--|
A--3-/-6-6-5-5-3-0--|
D--3-/-6-6-5-5-3-0--| x2

E---------------------------------------|
B---------------------------------------|
G--8-8-8-8-8-8-8-8-8-5-5-5-5-5-5-5-5-5--|
D--6-6-6-6-6-6-6-6-6-3-3-3-3-3-3-3-3-3--|
A--6-6-6-6-6-6-6-6-6-3-3-3-3-3-3-3-3-3--|
D--6-6-6-6-6-6-6-6-6-3-3-3-3-3-3-3-3-3--| x1

E--------------------------------------|
B--------------------------------------|
G--------------------------------------|
D------7-----5---7------6---5---5-/-3--|
A------5-----3---5------6---5---5-/-3--|
D--0-0---0-0---0----0-0-6-0-5-0-5-/-3--| x2
PM . .   . .   .    . .   .   .

E---------------------------------------------------------------------------------|
B---------------------------------------------------------------------------------|
G--8-8-8-8-8-8-8-8-8-5-5-5-5-3-3-3-3-3--------------------------------------------|
D--6-6-6-6-6-6-6-6-6-3-3-3-3-1-1-1-1-1--0~~~~~~5~~~~~1~~~~~~0~~~~~~5~~~~~~8~~~~1--|
A--6-6-6-6-6-6-6-6-6-3-3-3-3-1-1-1-1-1--0~~~~~~5~~~~~1~~~~~~0~~~~~~5~~~~~~8~~~~1--|
D--6-6-6-6-6-6-6-6-6-3-3-3-3-1-1-1-1-1--0~~~~~~5~~~~~1~~~~~~0~~~~~~5~~~~~~8~~~~1--| x1
_______________________________________________________________________________________

E-------------------|
B-------------------|
G-------------------|
D--3-/-6-6-5-5-3-0--|
A--3-/-6-6-5-5-3-0--|
D--3-/-6-6-5-5-3-0--| x2

E---------------------------------------|
B---------------------------------------|
G--8-8-8-8-8-8-8-8-8-5-5-5-5-5-5-5-5-5--|
D--6-6-6-6-6-6-6-6-6-3-3-3-3-3-3-3-3-3--|
A--6-6-6-6-6-6-6-6-6-3-3-3-3-3-3-3-3-3--|
D--6-6-6-6-6-6-6-6-6-3-3-3-3-3-3-3-3-3--| x1

E--------------------------------------|
B--------------------------------------|
G--------------------------------------|
D------7-----5---7------6---5---5-/-3--|
A------5-----3---5------6---5---5-/-3--|
D--0-0---0-0---0----0-0-6-0-5-0-5-/-3--| x2
PM . .   . .   .    . .   .   .

E---------------------------------------|
B---------------------------------------|
G--8-8-8-8-8-8-8-8-8-5-5-5-5-3-3-3-3-3--|
D--6-6-6-6-6-6-6-6-6-3-3-3-3-1-1-1-1-1--|
A--6-6-6-6-6-6-6-6-6-3-3-3-3-1-1-1-1-1--|
D--6-6-6-6-6-6-6-6-6-3-3-3-3-1-1-1-1-1--| x1

E--------------------------------------|
B--------------------------------------|
G--------------------------------------|
D------7-----5---7------6---5---5-/-3--|
A------5-----3---5------6---5---5-/-3--|
D--0-0---0-0---0----0-0-6-0-5-0-5-/-3--| x3
PM . .   . .   .    . .   .   .

E---------------------------------------|
B---------------------------------------|
G---------------------------------------|
D------7-----5---7---3-/-6-6-5-5-3-0----|
A------5-----3---5---3-/-6-6-5-5-3-0----|
D--0-0---0-0---0---0-3-/-6-6-5-5-3-0----| x1
PM . .   . .   .   .

E--------------------------------------|
B--------------------------------------|
G--------------------------------------|
D------7-----5---7------6---5---5-/-3--|
A------5-----3---5------6---5---5-/-3--|
D--0-0---0-0---0----0-0-6-0-5-0-5-/-3--| x3
PM . .   . .   .    . .   .   .

E-------------------------------------------------------------|
B-------------------------------------------------------------|
G-------------------------------------------------------------|
D------7-----5---7---3-/-6-6-5-5-3-0----3-/-6-6-5-5-3-0--(0)--|
A------5-----3---5---3-/-6-6-5-5-3-0----3-/-6-6-5-5-3-0--(0)--|
D--0-0---0-0---0---0-3-/-6-6-5-5-3-0----3-/-6-6-5-5-3-0--(0)--| x1
PM . .   . .   .   .
_______________________________________________________________________________________
THE END
Tap to rate this tab
# A B C D E F G H I J K L M N O P Q R S T U V W X Y Z