Song name
# A B C D E F G H I J K L M N O P Q R S T U V W X Y Z

Eisbrecher - Bse Mdchen tab

INTRO
(x3)
D--------------------------------------------|            
A--------------------------------------------|        
F--------------------------------------------|        
C-4----11-11h13-13--9-9h11-11--7-7h9-9-6/4-4|        
G-4----11-11h13-13--9-9h11-11--7-7h9-9-6/4-4|        
C-4----11-11h13-13--9-9h11-11--7-7h9-9--6/4-4|  
Guitar 1    
D---------------------|           
A---------------------|        
F---------------------|        
C-6-6-6-7-7-79-9-9--4|        
G-6-6-6-7-7-79-9-9--4|        
C-6-6-6-7-7-79-9-9--4|     

D--------------------------------------------|            
A--------------------------------------------|        
F--------------------------------------------|        
C-4----11-11h13-13--9-9h11-11--7-7h9-9-6/4-4|        
G-4----11-11h13-13--9-9h11-11--7-7h9-9-6/4-4|        
C-4----11-11h13-13--9-9h11-11--7-7h9-9--6/4-4|  

D----------------------------------------------|          
A----------------------------------------------|        
F----------------------------------------------|        
C-4----11-11h13-13--9-9h11-11--7-7h9-9-6/12-12|        
G-4----11-11h13-13--9-9h11-11--7-7h9-9-6/12-12|        
C-4----11-11h13-13--9-9h11-11--7-7h9-9--6/12-12|  

D----------------------------------------------------------------------------|            
A----------------------------------------------------------------------------|        
F----------------------------------------------------------------------------|        
C-4----11-11h13-13--9-9h11-11--7-7h9-9-6/12-12-12-1211-11-119-9-97-7-7--4|        
G-4----11-11h13-13--9-9h11-11--7-7h9-9-6/12-12-12-1211-11-119-9-97-7-7--4|        
C-4----11-11h13-13--9-9h11-11--7-7h9-9--6/12-12-12-1211-11-119-9-97-7-7--4|
Guitar 2
D---------------------|           
A---------------------|        
F--------------------7|        
C-6-6-6-7-7-79-9-9--7|        
G-6-6-6-7-7-79-9-9--5|        
C-6-6-6-7-7-79-9-9---|     
(x2)
D----------------------------------------|        
A----------------------------------------|        
F---------------------------------------7|        
C-4----11-11h13-13--9-9h11-11--7-7h9-9-7|        
G-4----11-11h13-13--9-9h11-11--7-7h9-9-5|        
C-4----11-11h13-13--9-9h11-11--7-7h9-9---|  

(x1)
D------------------------------------------------------------------------|        
A------------------------------------------------------------------------|        
F---------------------------------------7-7-7-10-10-10-14-14-14-17-17-17-|        
C-4----11-11h13-13--9-9h11-11--7-7h9-9-7-7-7-10-10-10-14-14-14-17-17-17-|        
G-4----11-11h13-13--9-9h11-11--7-7h9-9-5-5-5-8--8-8-12-12-12-15-15-15-|        
C-4----11-11h13-13--9-9h11-11--7-7h9-9-----------------------------------|
Verso
(x8)
D--------------------------------------------|            
A--------------------------------------------|        
F--------------------------------------------|        
C--------------------------------------------|    
G--------------------------------------------|        
C-4----11-11h13-13--9-9h11-11--7-7h9-9--6/4-4|  
Chorus
D------------------------------------|            
A------------------------------------|        
F------------------------------------|        
C-4------2------12------7------9-----|        
G-4(x12)-2(x12)-12(x10)-7(x10)-9(x4)-|        
C-4------2------12------7------9-----|  

D-----------------------------------|     
A-----------------------------------|        
F---------------7------9------------|        
C-4------2------7(x10)-9(x10)-7-----|        
G-4(x12)-2(x12)-5------7------7(x4)-|        
C-4------2--------------------7-----| 
 (x3)
D--------------------------------------------|            
A--------------------------------------------|        
F--------------------------------------------|        
C-4----11-11h13-13--9-9h11-11--7-7h9-9-6/4-4|        
G-4----11-11h13-13--9-9h11-11--7-7h9-9-6/4-4|        
C-4----11-11h13-13--9-9h11-11--7-7h9-9--6/4-4|  
Guitar 1    
D---------------------|           
A---------------------|        
F---------------------|        
C-6-6-6-7-7-79-9-9--4|        
G-6-6-6-7-7-79-9-9--4|        
C-6-6-6-7-7-79-9-9--4|

D--------------------------------------------|            
A--------------------------------------------|        
F--------------------------------------------|        
C-4----11-11h13-13--9-9h11-11--7-7h9-9-6/4-4|        
G-4----11-11h13-13--9-9h11-11--7-7h9-9-6/4-4|        
C-4----11-11h13-13--9-9h11-11--7-7h9-9--6/4-4|  





D----------------------------------------------|          
A----------------------------------------------|        
F----------------------------------------------|        
C-4----11-11h13-13--9-9h11-11--7-7h9-9-6/12-12|        
G-4----11-11h13-13--9-9h11-11--7-7h9-9-6/12-12|        
C-4----11-11h13-13--9-9h11-11--7-7h9-9--6/12-12|  
D----------------------------------------------------------------------------|            
A----------------------------------------------------------------------------|        
F----------------------------------------------------------------------------|        
C-4----11-11h13-13--9-9h11-11--7-7h9-9-6/12-12-12-1211-11-119-9-97-7-7--4|        
G-4----11-11h13-13--9-9h11-11--7-7h9-9-6/12-12-12-1211-11-119-9-97-7-7--4|        
C-4----11-11h13-13--9-9h11-11--7-7h9-9--6/12-12-12-1211-11-119-9-97-7-7--4|
Guitar 2
D---------------------|           
A---------------------|        
F--------------------7|        
C-6-6-6-7-7-79-9-9--7|        
G-6-6-6-7-7-79-9-9--5|        
C-6-6-6-7-7-79-9-9---|     
(x2)
D----------------------------------------|        
A----------------------------------------|        
F---------------------------------------7|        
C-4----11-11h13-13--9-9h11-11--7-7h9-9-7|        
G-4----11-11h13-13--9-9h11-11--7-7h9-9-5|        
C-4----11-11h13-13--9-9h11-11--7-7h9-9---|  
(x1)
D------------------------------------------------------------------------|        
A------------------------------------------------------------------------|        
F---------------------------------------7-7-7-10-10-10-14-14-14-17-17-17-|        
C-4----11-11h13-13--9-9h11-11--7-7h9-9-7-7-7-10-10-10-14-14-14-17-17-17-|        
G-4----11-11h13-13--9-9h11-11--7-7h9-9-5-5-5-8--8-8-12-12-12-15-15-15-|        
C-4----11-11h13-13--9-9h11-11--7-7h9-9-----------------------------------|
Verso
(x8)
D--------------------------------------------|            
A--------------------------------------------|        
F--------------------------------------------|        
C--------------------------------------------|    
G--------------------------------------------|        
C-4----11-11h13-13--9-9h11-11--7-7h9-9--6/4-4|  
Chorus
D------------------------------------|            
A------------------------------------|        
F------------------------------------|        
C-4------2------12------7------9-----|        
G-4(x12)-2(x12)-12(x10)-7(x10)-9(x4)-|        
C-4------2------12------7------9-----|  



D-----------------------------------|     
A-----------------------------------|        
F---------------7------9------------|        
C-4------2------7(x10)-9(x10)-7-----|        
G-4(x12)-2(x12)-5------7------7(x4)-|        
C-4------2--------------------7-----| 
Solo
(x8)
D--------------------------------------------|            
A--------------------------------------------|        
F--------------------------------------------|        
C--------------------------------------------|    
G--------------------------------------------|        
C-4----11-11h13-13--9-9h11-11--7-7h9-9--6/4-4|
 
D----------------------------------|      
A----------------------------------|        
F-(7)--------(7)--------(7)-------|        
C-4(7)-4444--4(7)-0000--4(7)--4444-|    
G-4(5)-4444--4(5)-0000--4(5)--4444-|        
C-4----4444-4----0000--4-----4444-|  
Guitar 1    
D--------------------------O------------------------------------|         
A--------------------------O------------------------------------|        
F--------------------------O--7-7-7-10-10-10-14-14-14-17-17-17--|        
C-6-6-6-7-7-79-9-9--4-----O--7-7-7-10-10-10-14-14-14-17-17-17--|        
G-6-6-6-7-7-79-9-9--4-----O--5-5-5-8--8--8--12-12-12-15-15-15--|        
C-6-6-6-7-7-79-9-9--4-----O------------------------------------|

D--------------------------------------------|            
A--------------------------------------------|        
F--------------------------------------------|        
C-4----11-11h13-13--9-9h11-11--7-7h9-9-6/4-4|        
G-4----11-11h13-13--9-9h11-11--7-7h9-9-6/4-4|        
C-4----11-11h13-13--9-9h11-11--7-7h9-9--6/4-4| 
 
D----------------------------------------------|          
A----------------------------------------------|        
F----------------------------------------------|        
C-4----11-11h13-13--9-9h11-11--7-7h9-9-6/12-12|        
G-4----11-11h13-13--9-9h11-11--7-7h9-9-6/12-12|        
C-4----11-11h13-13--9-9h11-11--7-7h9-9--6/12-12|  

D----------------------------------------------------------------------------|            
A----------------------------------------------------------------------------|        
F----------------------------------------------------------------------------|        
C-4----11-11h13-13--9-9h11-11--7-7h9-9-6/12-12-12-1211-11-119-9-97-7-7--4|        
G-4----11-11h13-13--9-9h11-11--7-7h9-9-6/12-12-12-1211-11-119-9-97-7-7--4|        
C-4----11-11h13-13--9-9h11-11--7-7h9-9--6/12-12-12-1211-11-119-9-97-7-7--4|
Guitar 2
D---------------------|           
A---------------------|        
F--------------------7|        
C-6-6-6-7-7-79-9-9--7|        
G-6-6-6-7-7-79-9-9--5|        
C-6-6-6-7-7-79-9-9---|     
(x2)
D----------------------------------------|        
A----------------------------------------|        
F---------------------------------------7|        
C-4----11-11h13-13--9-9h11-11--7-7h9-9-7|        
G-4----11-11h13-13--9-9h11-11--7-7h9-9-5|        
C-4----11-11h13-13--9-9h11-11--7-7h9-9---|  
(x1)
D------------------------------------------------------------------------|        
A------------------------------------------------------------------------|        
F---------------------------------------7-7-7-10-10-10-14-14-14-17-17-17-|        
C-4----11-11h13-13--9-9h11-11--7-7h9-9-7-7-7-10-10-10-14-14-14-17-17-17-|        
G-4----11-11h13-13--9-9h11-11--7-7h9-9-5-5-5-8--8-8-12-12-12-15-15-15-|        
C-4----11-11h13-13--9-9h11-11--7-7h9-9-----------------------------------|
Chorus
D------------------------------------|            
A------------------------------------|        
F------------------------------------|        
C-4------2------12------7------9-----|        
G-4(x12)-2(x12)-12(x10)-7(x10)-9(x4)-|        
C-4------2------12------7------9-----|

D-----------------------------------|     
A-----------------------------------|        
F---------------7------9------------|        
C-4------2------7(x10)-9(x10)-7-----|        
G-4(x12)-2(x12)-5------7------7(x4)-|        
C-4------2--------------------7-----|

D------------------------------------|            
A------------------------------------|        
F------------------------------------|        
C-4------2------12------7------9-----|        
G-4(x12)-2(x12)-12(x10)-7(x10)-9(x4)-|        
C-4------2------12------7------9-----|

D-----------------------------------|     
A-----------------------------------|        
F---------------7------9------------|        
C-4------2------7(x10)-9(x10)-7-----|        
G-4(x12)-2(x12)-5------7------7(x4)-|        
C-4------2--------------------7-----|  
END
(x2)
D---|     
A---|        
F---|        
C-4-|        
G-4-|        
C-4-|
Tap to rate this tab
# A B C D E F G H I J K L M N O P Q R S T U V W X Y Z