Song name
# A B C D E F G H I J K L M N O P Q R S T U V W X Y Z

Eisenvater - Der Greuel tab

Band:  EISENVATER
Album:  I
Song:  DER GREUEL
Websites: http://www.eisenvater.com/ - http://eisenvater.bandcamp.com/

Copyright (c)  WE BITE Records (1992)
Version 1.0 - 2/11/2014

Transcribed By: Sebastian
Email:          08533@web.de


.  - palm mute           /  - slide up to
  - slide down to       ~  - vibrato
h  - hammer on           b  - Bend
p  - pull off

Tuning Bb F Bb Eb G C

There's two guitars, they do pretty much the same unless specified.

This is pretty much all the riffs in the song.
You can listen to it on their bandcamp to figure out the order
Get a rich, crusty guitar sound for this

Intro - do those hammer ons and pull offs really quickly
------------------------------------|
------------------------------------|
------------------------------------|
7-7-7-7-----------------------------|
5-5-5-5-6--0-0---0-0-0-6h76h76------|h7...
0-0-0-0-6--0-0---0-0-0--------------|
. . . .    . .   . . .


Riff 1 (2nd guitar goes WILD at some points during this)
-----------------------------------|
-----------------------------------|
-----------------------9h10p9h10---|p9...
-----------------------------------|
0-0-0-0-6--0-0---0-0-0-------------|
0-0-0-0-6--0-0---0-0-0-------------|
. . . .    . .   . . .


Riff 2 + Variations - some tremolo picking here
------------|----------------|----------|------------|
------------|----------------|----------|------------|
------------|----------------|----------|------------|
------------|----------------|6--6--7--7|7-6-5-4-3-2-|
777777888888|6666664h5p43h4p3|4--4--5--5|7-6-5-4-3-2-|
777777888888|666666----------|----------|7-6-5-4-3-2-|
............ ......                      . . . . . .

Riff 2 (alternative)
------------|------------|----------|------------|
------------|------------|----------|------------|
------------|------------|----------|------------|
------------|------------|6--6--7--7|7-6-5-4-3-2-|
777777888888|666666555444|4--4--5--5|7-6-5-4-3-2-|
777777888888|666666------|----------|7-6-5-4-3-2-|
............ ......                  . . . . . .

Riff 3 + Variations -
the slide + vibrato/bend on the 5th fret is the only thing I'm not sure about...
just make it squeal
------------|---------|-----------|-----------|--------------|--------------|
------------|---------|-----------|-----------|--------------|--------------|
------------|---------|-----------|-----------|--------------|9h10p9h10-----|p9...
0-2--0-2--0-|2-0-/5~~~|-/5-5-5-5~~|7-6-5-4-3-2|7-6-5-4-3-2...|--------------|
0-2--0-2--0-|2-0-/5~~~|-/5-5-5-5~~|7-6-5-4-3-2|7-6-5-4-3-2...|--------------|
0-2--0-2--0-|2-0------|-----------|7-6-5-4-3-2|7-6-5-4-3-2...|--------------|
                                               . . . . . .
Riff 4 - punky
--------------------------------------------------------------------|
--------------------------------------------------------------------|
--------------------------------------------------------------------|
0-2--0-2--0-2-5-4-3-2-0-2-0-2-5-4-3-2-0-2-0-2-5-4-3-2-0-2-0-2-5-4-2-|
0-2--0-2--0-2-5-4-3-2-0-2-0-2-5-4-3-2-0-2-0-2-5-4-3-2-0-2-0-2-5-4-2-|
0-2--0-2--0-2-5-4-3-2-0-2-0-2-5-4-3-2-0-2-0-2-5-4-3-2-0-2-0-2-5-4-2-|

Riff 5 - tremolo
------------------------|
------------------------|
------------------------|
------------------------|
222000222000222555444333
------------------------

Final Riff + Variation/Outro... Vocals come in here
                                       ending
---------------------|----------------|----------------|
---------------------|----------------|----------------|
---------------------|----------------|----------------|
--------4---5-4------|4--3-4--3-4--3-4|3-3-3-2-3-3-3-2-|
0-0-0-0-2---3-2---3-2|4--3-4--3-4--3-4|3-3-3-2-3-3-3-2-|
0-0-0-0-----------3-2|4--3-4--3-4--3-4|3-3-3-2-3-3-3-2-|..
. . . .                                . . . . . . . .
Tap to rate this tab
# A B C D E F G H I J K L M N O P Q R S T U V W X Y Z