Eisley - The Valley Acoustic tab

       Eisley- The Valley

video: http://www.youtube.com/watch?v=16_P9wAJ7LA
Tuning: Standard

Chords used:
Dm 000231
Fmaj7 003210
C7 032310

Verse

e|----1-----|----------|----------|----------|
B|------3---|----1-----|----1-----|----1-----|
G|--2-----2-|------2---|------3---|------2---|
D|----------|--3-----3-|--------2-|--3-----3-|
A|----------|----------|--3-------|----------|
E|----------|----------|----------|----------|

|----1-----|----------|----------|
|------3---|----1-----|----1-----|
|--2-----2-|------2---|------3---|
|----------|--3-----3-|--------2-|
|----------|----------|--3-------|
|----------|----------|----------|

Then same notes, only strumming (Oooh oooh)
Dm Fmaj7 C7 Fmaj7             x2

Verse repeats

Chorus
e|--------------------------------------|
B|--6-----------------------------------|
G|--7------7-------------9--------------|
D|--7-(x8)-8------9------10------9------|
A|--5------8-(x8)-9-(x8)-10-(x8)-9-(x8)-|
E|---------6------7------8-------7------|

e|--2------------2-|
B|--3-(x8)-------3-|
G|--2-----7------2-|
D|--------8--------|
A|--------8-(x8)---|
E|--------6--------|

Verse same as first one

Chorus 2
e|--------------------------------------|
B|--6-----------------------------------|
G|--7------7-------------9--------------|
D|--7-(x8)-8------9------10------9------|
A|--5------8-(x8)-9-(x8)-10-(x8)-9-(x8)-|
E|---------6------7------8-------7------|

e|--2------------2-----|
B|--3-(x8)-------3(x8)-|
G|--2-----7------2-----|
D|--------8------------|
A|--------8-(x8)-------|
E|--------6------------|

e|--------------------------------------|
B|--6-----------------------------------|
G|--7------7-------------9--------------|
D|--7-(x8)-8------9------10------9------|
A|--5------8-(x8)-9-(x8)-10-(x8)-9-(x8)-|
E|---------6------7------8-------7------|

e|--2------------2-|
B|--3-(x8)-------3-|
G|--2-----7------2-|
D|--------8--------|
A|--------8-(x8)---|
E|--------6--------|


Bridge (you can figure out the strumming)

|-----------------|
|-----------------|
|--------------1--|
|--9---7---5---2--|
|--9---7---5---2--|
|--7---5---3------|

|----------------|
|----------------|
|----------------|
|--9---7---5-----|
|--9---7---5-----|
|--7---5---3-----|

Chorus 2 repeats

Last chorus
e|--------------------------------------2-------|
B|--6-----------------------------------3-(x8)--|
G|--7------7-------------9--------------2-------|
D|--7-(x8)-8------9------10------9--------------|
A|--5------8-(x8)-9-(x8)-10-(x8)-9-(x8)---------|
E|---------6------7------8-------7--------------|

til everything is fine
|---------------2-----|       |--3-------2-------------2--|
|---------------3(x8)-|       |--3-------3-(x8)--------3--|
|--------7------2-----|x3     |--0-------2-------------2--|
|--------8------------|       |--0-(x8)---------8---------|
|--------8-(x8)-------|       |--2--------------8-(x8)----|
|--------6------------|       |--3--------------6---------|
Tap to rate this tab
 
# A B C D E F G H I J K L M N O P Q R S T U V W X Y Z