Song name
# A B C D E F G H I J K L M N O P Q R S T U V W X Y Z

Eisley - Lost At Sea tab

----------------------------------------------------------------------------
			     Lost At Sea
----------------------------------------------------------------------------
Tabbed by:Robert Abasolo
Email:abasolob@sbcglobal.net
Capo 3
Tuning:DADGBE
This tab is 100percent correct ive seen jimmy do it a hundred times and sorry if this 
is a little weird but its my first

e|-------------------------------------------------------------------------|
B|-------3-------------3--------------3------------3-----------------------|
G|-------3-------------3--------------3------------3-----------------------|
D|-------3-------------3--------------3------------3-----------------------|
A|-------------------------------------------------------------------------|
D|-5--5--------3--3-----------2---2---------1--1---------------------------|

Play inbetween each chord

e|-------------------------------------------------------------------------|
B|-------------------------------------------------------------------------|
G|--------------3b---------------------------3b----5b----------------------|
D|---------3h5---------5b---------------3h5--------------------------------|
A|-----3h5-------------------------3h5-------------------------------------|
D|-------------------------------------------------------------------------|


Until last chord then play
e|-------------------------------------------------------------------------|
B|-------------------------------------------------------------------------|
G|----5p3-5s9--5--3--0---------(Last Time)--5--5--9--5--3--0---------------|
D|----5p3-5s9--5--3--0----------------------5--5--9--5--3--0---------------|
A|-------------------------------------------------------------------------|
D|-------------------------------------------------------------------------|


Verses
You can figure out the picking/rythm
e|-------------------------------------------------------------------------|
B|---3----------3---------3--------3---------------------------------------|
G|---3----------3---------3--------3---------------------------------------|
D|---3----------3---------3--------3---------------------------------------|
A|-------------------------------------------------------------------------|
D|---5----------3---------2--------1---------------------------------------|
                T         T

Chorus   You can figure out the hammer ons and rythms

e|-----------------6-------------------------------------------------------|
B|-----------------4-------------------------------------------------------|
G|----3------------3-------------------------------------------------------|
D|----3-----3------5-------------------------------------------------------|
A|----1-----3------3-------------------------------------------------------|
D|----------3--------------------------------------------------------------|

Bridge 1 (la da da da etc.)
e|---------------------------------------------------------------------------|
B|---3------3----3----333333-------------------------------------------------|
G|---3------3----3----333333-------------------------------------------------|
D|---3------3----3----333333-------------------------------------------------|
A|---------------------------------------------------------------------------|
D|---5------3----2----111111-------------------------------------------------|

chorus

then

Bridge 2(La da da da etc)
e|-------------6-----------------------------------------------------------|
B|-------------4-----------------------------------------------------------|
G|--3----------3-----------------------------------------------------------|
D|--3----3-----5-----------------------------------------------------------|
A|--1----3-----3-----------------------------------------------------------|
D|-------3-----------------------------------------------------------------|


Last Chorus
e|-----------------8-------------------------------------------------------|
B|-----------------6-------------------------------------------------------|
G|--5--------------5-------------------------------------------------------|
D|--5------5-------7-------------------------------------------------------|
A|--3------5-------5-------------------------------------------------------|
D|---------5---------------------------------------------------------------|

e|-------------------------------------------------------------------------|
B|---------------------------5----------------5----------------------------|
G|-----5-----------5b--------5--------5b7b----5---------5b-----------5-5555|
D|-----5------5h7-----7b-----5-----5h7--------5------5h7---7b--------5-5555|
A|-----5--5h7-------------------5h7---------------5h7----------------5-5555|
E|--7-7--------------------5-5--------------4-4-----------------3--3---3333|
                           T T              T T
Tap to rate this tab
# A B C D E F G H I J K L M N O P Q R S T U V W X Y Z