Song name
# A B C D E F G H I J K L M N O P Q R S T U V W X Y Z

Eisregen - Schwarzer Gigolo tab

Band: Eisregen
Album: Knochenkult
Song: Schwarzer Gigolo - Solo
Tuning: Drop D
Tabbed by: M. R. (Phantasmahorror)

E|---------------------------------|
B|---------------------------------|
G|---------------------------------|
D|------------------------3-1-0----|
A|-------5-5-6-6-5-0-1--1----------|
D|-5---5-------------------------5-|

E|-----------------------|
B|-----------------------|
G|-----------------------|
D|-----------------------|
A|---5-5-6-6-5---1---3---|
D|-5----------5-1-1-3-3--|


That's it. That's the solo. Rest of the song is coming soon! =)
Tap to rate this tab
 
# A B C D E F G H I J K L M N O P Q R S T U V W X Y Z