Song name
# A B C D E F G H I J K L M N O P Q R S T U V W X Y Z

Eisregen - Feindbild Mensch tab

Title:  Feindbild Mensch
Artist: Eisregen
Album:  Leichenlager
Tuning: E-A-D-G-B-E


PM - palm muting    /\ - slide up/down
 ~ - vibrato


Intro
|--------------------------------------------------|
|--------------------------------------------------|
|--------------------------------------------------|2x
|-----------------------------------------2---3----|
|--3--2-2--2------1--------3--2-2--2---------------|
|--1--0-0--0----------3----1--0-0--0---------------|


Interlude
|-------|
|-------|
|-------|1x
|-------|
|-------|
|-1-0-0-|


Verse
|Part1
|---------------------------------|
|---------------------------------|
|---------------------------------|8x
|--9---9---9---9---8---8---5---5--|
|--x---x---x---x---x---x---x---x--|
|--7-7-7-7-7-7-7---6-6-6---3-3-3--|
|  PM-----------   PM---   PM---
|
|Part2
|-----------------------------------------------------------------|
|-----------------------------------------------------------------|
|-----------------------------------------------------------------|2x
|-----------------------0--1--0-0--------0--1--0-0----------------|
|------3--5--3-3\---------------------------------------3--5--3~--|
|-0-0------------0-0-0------------0-0-0------------0-0------------|
|
|Part1
|---------------------------------|
|---------------------------------|
|---------------------------------|8x
|--9---9---9---9---8---8---5---5--|
|--x---x---x---x---x---x---x---x--|
|--7-7-7-7-7-7-7---6-6-6---3-3-3--|
   PM-----------   PM---   PM---


Chorus
|--------------------------------------------------|
|--------------------------------------------------|
|--------------------------------------------------|2x
|-----------------------------------------2---3----|
|--3--2-2--2------1--------3--2-2--2---------------|
|--1--0-0--0----------3----1--0-0--0---------------|


Bridge
|-------------------------------------------------|
|-------------------------------------------------|
|-------------------------------------------------|
|-2---------------2---------------2---------------|
|-0---------------0---------------0---------------|
|-0---------------0---------------0---------------|
|
|-------------------------------------------------|
|-------------------------------------------------|
|-------------------------------------------------|
|-2---2---2---2----9--8-8-8-8---------------------|
|-0---0---0---0----7--6-6-6-6---------------------|
|-0---0---0---0----7--6-6-6-6---------------------|
                           PM-

Verse
|Part1
|---------------------------------|
|---------------------------------|
|---------------------------------|8x
|--9---9---9---9---8---8---5---5--|
|--x---x---x---x---x---x---x---x--|
|--7-7-7-7-7-7-7---6-6-6---3-3-3--|
|  PM-----------   PM---   PM---
|
|Part2
|----------------------------------------------------------------|
|----------------------------------------------------------------|
|----------------------------------------------------------------|2x
|----------------------0--1--0-0------0--1--0-0------------------|
|------3--5--3-3\--------------------------------------3--5--3~--|
|-0-0------------0-0-0-----------0-0------------0-0-0------------|
|
|Part1
|---------------------------------|
|---------------------------------|
|---------------------------------|8x
|--9---9---9---9---8---8---5---5--|
|--x---x---x---x---x---x---x---x--|
|--7-7-7-7-7-7-7---6-6-6---3-3-3--|
   PM-----------   PM---   PM---


Chorus
|--------------------------------------------------|
|--------------------------------------------------|
|--------------------------------------------------|2x
|-----------------------------------------2---3----|
|--3--2-2--2------1--------3--2-2--2---------------|
|--1--0-0--0----------3----1--0-0--0---------------|


Outro
|-------------------------------------------------------------|
|-------------------------------------------------------------|
|-------------------------------------------------------------|
|----------2--2-----------3--3-----------5--5-----------9--9--|
|--3--2-2---------3--2-2---------3--2-2---------3--2-2--------|
|--1--0-0---------1--0-0---------1--0-0---------1--0-0--------|


tabbed by metalolli
mailto: olli_hm@web.de
Tap to rate this tab
# A B C D E F G H I J K L M N O P Q R S T U V W X Y Z