Guitaretab - guitar tabs
Song name
# A B C D E F G H I J K L M N O P Q R S T U V W X Y Z

Eisregen - Die Seele Der Totgeburt tab

Titel:  Die Seele Der Totgeburt
Artist: Eisregen
Album:  Leichenlager
Tuning: Db-Ab-Db-Gb-Bb-Eb


Intro
|----------------------------------------------------------------|
|----------------------------------------------------------------|
|----------------------------------------------------------------|1x
|------55-88-55--------00-33-00--------11-44-11--------00-33-00--|
|-5555------------0000------------1111------------0000-----------|
|----------------------------------------------------------------|


Verse
|----------------------------------------------------------------|
|----------------------------------------------------------------|
|----------------------------------------------------------------|4x
|------55-88-55--------00-33-00--------11-44-11--------00-33-00--|
|-5555------------0000------------1111------------0000-----------|
|----------------------------------------------------------------|

Waaaarrrm, Geborgenheit im Mutterleib
Die feuchte Wärme rings um dich herum
Ein Herzschlaaaag, der tröstend über allem schwebt
Die Nabelschnur die dich enährt
Ist alles was für dich jetzt zählt


Bridge1
|-----------------------------------------------------------------------|
|-----------------------------------------------------------------------|
|-----------------------------------------------------------------------|6x
|-5-5-5-5-—0-0-0-0--1-1-1-1-1-1-1-1--3-3-3-3--1-1-1-1--0-0-0-0-0-0-0-0--|
|-5-5-5-5-—0-0-0-0--1-1-1-1-1-1-1-1--3-3-3-3--1-1-1-1--0-0-0-0-0-0-0-0--|
|-5-5-5-5-—0-0-0-0--1-1-1-1-1-1-1-1--3-3-3-3--1-1-1-1--0-0-0-0-0-0-0-0--|

Keine Furcht, kein Grauen, keine Angst
Das Dunkel schützt dich vor dem Leben
Was draußen ist, geht dich nichts an
Du wirst es niemals je erfahren

Was wird sein in ein paar Tagen?
Wenn dich die Mutter leben lässt
Wenn du aus dem Dunkel tauchst
Hinein ins helle Tageslicht

Wer wird dir dann noch Wärme spenden?
WAS WIRD DORT SEIN?
Wer wird dich vor dem Leben schützen
Wenn du den Mutterleib 

Interlude
|----------------------------------------------------------------|
|----------------------------------------------------------------|
|----------------------------------------------------------------|1x
|------55-88-55--------00-33-00--------11-44-11--------00-33-00--|
|-5555------------0000------------1111------------0000-----------|
|----------------------------------------------------------------|
veergiiiiiiiiiiisst

[ Tab from: http://www.guitaretab.com/e/eisregen/77204.html ]
Verse
|----------------------------------------------------------------|
|----------------------------------------------------------------|
|----------------------------------------------------------------|4x
|------55-88-55--------00-33-00--------11-44-11--------00-33-00--|
|-5555------------0000------------1111------------0000-----------|
|----------------------------------------------------------------|

Doch draußen wartet nichts auf dich
Was einen Wert für dich besäße
Des Alltags Wahnsinns kalter Hauch
Liegt über allem Tun und handeeeeeeeeeeeln


Bridge2 
|------------------------------------------------------------------------|
|------------------------------------------------------------------------|
|------------------------------------------------------------------------|4x
|------------------------------------------------------------------------|
|-3-3-3-3--4-4—4-4--6-6-6-6--1-1-1-1--3-3-3-3--4-4-4-4--6-6-6-6--1-1-1-1-|
|-3-3-3-3--4-4—4-4--6-6-6-6--1-1-1-1--3-3-3-3--4-4-4-4--6-6-6-6--1-1-1-1-|

Zum ersten Mal beschleicht dich Furcht
Und du beschließt nicht raus zu gehen
Dorthin wo Gleichgültigkeit herrscht
Und wo der Mensch sich selbst zerstört

Doch dann ist schon die Zeit gekommen
Wo dich die Mutter leben lässt
Sie greifen nach dir und führen dich
Hinaus, ins kalte Neonlicht

Doch Dieses Licht, du spürst es nicht
Denn dein Herz hat angehalten
Der erste Atemzug verwehrt
Ein Leben endet, ehe es 

Interlude
|----------------------------------------------------------------|
|----------------------------------------------------------------|
|----------------------------------------------------------------|1x
|------55-88-55--------00-33-00--------11-44-11--------00-33-00--|
|-5555------------0000------------1111------------0000-----------|
|----------------------------------------------------------------|
begiiiiiiiiiiiiiiiiiint


Verse
|----------------------------------------------------------------|
|----------------------------------------------------------------|
|----------------------------------------------------------------|3x
|------55-88-55--------00-33-00--------11-44-11--------00-33-00--|
|-5555------------0000------------1111------------0000-----------|
|----------------------------------------------------------------|

Doch wohin treibt die Seele nun?
Die Seele eines Menschen, der nie lebte
Wo ist der letzte Ruheort
Für die Seele der Totgeburt

Was bedeutet Tod für den,
Der nie das Leben kannte


Ending
|--------------------------------------------------------------------|
|--------------------------------------------------------------------|
|--------------------------------------------------------------------|
|------55-88-55--------00-33-00--------11-44-11--------00-33-00------|
|-5555------------0000------------1111------------0000------------5--|
|-----------------------------------------------------------------5--|

Dunkelheit für alle Zeiten
Für die Seele der Totgeebuuurrrt


tabbed by metalolli
mailto: olli_hm@web.de
Related for Die Seele Der Totgeburt tab
Advertisement will be closed in 10 seconds