Song name
# A B C D E F G H I J K L M N O P Q R S T U V W X Y Z

Eisregen - Auferstehung tab

Tuning: standart (E-e)

Intro, Verse
 A          C         E
---------------------------------------------------------|
---------------------------------------------------------|
---------------------------------------------------------|
-2----------5----------9-------------0---2----3---2------|
-0----------3----------7---------------------------------|
---------------------------------------------------------|
.........................................................

Blastpart:
------------------------|
------------------------|
------------------------|
------3-----2---0-2-3-2-|
-0----------------------|
------------------------|
.......................


Melodic part:

C - em - C - G - F as Chords

Chords:
 C  em G  F
-3--7--3--1--|
-5--8--3--1--|
-5--9--4--2--|
-5--9--5--3--|
-3--7--5--3--|
-------3--1--|


The rest are only variations
Tap to rate this tab
 
# A B C D E F G H I J K L M N O P Q R S T U V W X Y Z