Song name
# A B C D E F G H I J K L M N O P Q R S T U V W X Y Z

Eisregen - Zeit Zu Spielen tab

Interpret: Eisregen
Tuning: Standart

Chords:
  Em |Am | D | F |
e|-0-|-0-|-1-|-1-|
b|-0-|-1-|-3-|-1-|
g|-0-|-2-|-2-|-2-|
D|-2-|-2-|-0-|-3-|
A|-2-|-0-|-0-|-3-|
E|-0-|-x-|-x-|-1-|




Verse:

Em - Am - D -F


Chorus:

e|--------|---------|--------|--------|
b|--------|---------|--------|--------|
g|--------|---------|-4------|-5------|
D|-2------|-5-------|-4------|-5------|
A|-2-x 10-|-5-x 10--|-2-x 10-|-3-x 10-|
E|-0------|-3------ |--------|--------|
   PM       PM        PM       PM
e|--------|---------|--------|--------|
b|--------|---------|--------|--------|
g|--------|---------|--------|--------|
D|-2------|-5-------|-3------|-2------|
A|-2-x 10-|-5-x 10--|-3-x 10-|-2-x 10-|
E|-0------|-3------ |-1------|-0------|
   PM       PM        PM       PM



Bridge

e|-------------------------------|
b|-------------------------------|
g|-------------------7-----------|
D|-2--------7--------7--------3--|
A|-2--------7--------5--------3--|
E|-0--------5-----------------1--|




Figure out yourself. tabbed by deathunlimitedaustria@hotmail.com
Tap to rate this tab
 
# A B C D E F G H I J K L M N O P Q R S T U V W X Y Z