Song name
# A B C D E F G H I J K L M N O P Q R S T U V W X Y Z

Ekoostik Hookah - Sheepdog tab

----------------------------------------------------------------------------
			     Sheepdog - Ekoostik Hookah (Dave Katz)
----------------------------------------------------------------------------
Tabbed By:  Ryan Baker

Email:  ohiogrown05@netzero.net

Tuning:  Standard

 Intro:

e|---------0-----2----3---------------------------------------------------|
B|---------1-----3----3---------------------------------------------------|
G|---------0-----2----0---------------------------------------------------|
D|---------2---0-0----0---------------------------------------------------|
A|---0-2-3-3----------2---------------------------------------------------|
E|-3----------------3-3---------------------------------------------------|


 Verse: G G G D G G G D G - Add intro riff here

 Bridge: F C G D C F C D


 Listen to song for stum pattern.

 I have plenty more Hookah tabs! Just email me if you have any requests,
 or just catch me at a hookah show!

| /  slide up
| \  slide down
| h  hammer-on
| p  pull-off
| ~  vibrato
| +  harmonic
| x  Mute note
============================================================================
Tap to rate this tab
# A B C D E F G H I J K L M N O P Q R S T U V W X Y Z