Song name
# A B C D E F G H I J K L M N O P Q R S T U V W X Y Z

Ekotren - The Dead Of Night tab

Ekotren
"The Dead of Night"
The Dead of Night
2011

E Standard




Let notes ring accordingly

E:--------------------|
B:--------------------|
G:-----4-----4--------|
D:-------5-----5------|
A:----------------7---|
E:---0-----3------5---|x2

"Can't find my way..."
E:-------------------------------|
B:-------------------------------|
G:-----4-----4----------7-6------|
D:-------5-----5------7-----7----|
A:------------------7---------7--|
E:---0-----3------5--------------|x4

(Pre-chorus)
"I feel so alone..."                         "...I've been here.."
Guitar1
E:--------------------------------------------------palm-muted---|
B:---------------------------------------------------*******-----|
G:----5--5-----9--9-----4--4-------7--7-----5--5-----2222222-----|
D:---5--5-----7--7-----2--2-------5--5-----5--5------2222222-----|
A:--3--3-----7--7-----2--2-------5--5-----3--3-------0000000-----|
E:---------------------------------------------------------------|
Guitar 2
E:---------------------------------palm-muted--|
B:---------------------------------*******-----|
G:--5------7------------------5----2222222-----|
D:--5------7-------2------5---5----2222222-----|
A:--3------5-------2------5---3----0000000-----|
E:-----------------0------3--------------------|

Chorus
Way to long...
E:----------------------------------------|
B:----------------------------------------|
G:----------------------------------------|
D:--2--5--7-----2--5--7-------5--2---5--2-|
A:--2--5--7-----2--5--7-------5--2---5--2-|
E:--0--3--5-----0--3--5-------3--0---3--0-|



E:--------------------|
B:--------------------|
G:-----4-----4--------|
D:-------5-----5------|
A:----------------7---|
E:---0-----3------5---|x2

"You can hide your demons..."
E:-------------------------------|
B:-------------------------------|
G:-----4-----4----------7-6------|
D:-------5-----5------7-----7----|
A:------------------7---------7--|
E:---0-----3------5--------------|x4

(Pre-chorus)
I feel so alone...                              "...I've been here.."
Guitar 1
E:--------------------------------------------------palm-muted---|
B:---------------------------------------------------*******-----|
G:----5--5-----9--9-----4--4-------7--7-----5--5-----2222222-----|
D:---5--5-----7--7-----2--2-------5--5-----5--5------2222222-----|
A:--3--3-----7--7-----2--2-------5--5-----3--3-------0000000-----|
E:---------------------------------------------------------------|
Guitar 2
E:---------------------------------palm-muted--|
B:---------------------------------*******-----|
G:--5------7------------------5----2222222-----|
D:--5------7-------2------5---5----2222222-----|
A:--3------5-------2------5---3----0000000-----|
E:-----------------0------3--------------------|

Chorus
Way to long...
E:----------------------------------------|
B:----------------------------------------|
G:----------------------------------------|
D:--2--5--7-----2--5--7-------5--2---5--2-|
A:--2--5--7-----2--5--7-------5--2---5--2-|
E:--0--3--5-----0--3--5-------3--0---3--0-|

E:------------------------------------------------------------|
B:------------------------------------------------------------|
G:------------------------------------------------------------|
D:-5-5-5-5-5-5-5-5-5-5-5-5--7-7-7-7-7-7-7-7-7-7-7-7-----2-----|
A:-5-5-5-5-5-5-5-5-5-5-5-5--7-7-7-7-7-7-7-7-7-7-7-7-----2-----|
E:-3-3-3-3-3-3-3-3-3-3-3-3--5-5-5-5-5-5-5-5-5-5-5-5-----0-----|x2
   * * * * * * * * * * * *  * * * * * * * * * * * *

E:-------------|
B:-------------|
G:-------------|
D:---5---4-----|
A:---5---4-----|
E:---3---2-----|



Breakdown
Guitar 1
E:-------------------------------------------------------------------------------------|
B:-------------------------------------------------------------------------------------|
G:-------------------------------------------------------------------------------------|
D:--2--4-5-4----2--4-5-4----2--4-5-4-----5-5-4---2--4-5-4----2--4-5-4----5-5-5-4-4-4---|
A:--2--------5--2--------5--2--------5---5-5-4---2--------5--2--------5--5-5-5-4-4-4---|
E:--0-----------0-----------0------------3-3-2---0-----------0-----------3-3-3-2-2-2---|

E:--------------------------------------------------------------|
B:--------------------------------------------------------------|
G:-------------------------------------------------Both guitars-|
D:--2--4-5-4----2--4-5-4----2--4-5-4-----5-5-4----[5---4]-------|
A:--2--------5--2--------5--2--------5---5-5-4----[5---4]-------|
E:--0-----------0-----------0------------3-3-2----[3---2]-------|

Guitar 2
E:-----------------------------------|--------------------|
B:-----------------------------------|--------------------|
G:----11-12-11-------11-12-11-------11-12-11-----12-12-11-| Same rhythm as Guitar 1
D:--2----------12--2----------12--2----------12-----------|
A:--2--------------2--------------2--------------10-10-9--|
E:--0--------------0--------------0-----------------------|





E:--------------------|
B:--------------------|
G:-----4-----4--------|
D:-------5-----5------|
A:----------------7---|
E:---0-----3------5---|x2


Way to long...
E:----------------------------------------|
B:----------------------------------------|
G:----------------------------------------|
D:--2--5--7-----2--5--7-------5--2---5--2-|
A:--2--5--7-----2--5--7-------5--2---5--2-|
E:--0--3--5-----0--3--5-------3--0---3--0-|

E:------------------------------------------------------------|
B:------------------------------------------------------------|
G:------------------------------------------------------------|
D:-5-5-5-5-5-5-5-5-5-5-5-5--7-7-7-7-7-7-7-7-7-7-7-7-----2-----|
A:-5-5-5-5-5-5-5-5-5-5-5-5--7-7-7-7-7-7-7-7-7-7-7-7-----2-----|
E:-3-3-3-3-3-3-3-3-3-3-3-3--5-5-5-5-5-5-5-5-5-5-5-5-----0-----|x2
   * * * * * * * * * * * *  * * * * * * * * * * * *
E:--------------|
B:--------------|
G:--------------|
D:---5---4--2---|
A:---5---4--2---|
E:---3---2--0---|



BurnHill Union Records

http://www.ekotren.com
http://www.myspace.com/ekotren
http://www.reverbnation.com/ekotren
http://www.purevolume.com/ekotren




Tabbed by js81221
Tap to rate this tab
 
# A B C D E F G H I J K L M N O P Q R S T U V W X Y Z