Song name
# A B C D E F G H I J K L M N O P Q R S T U V W X Y Z

Ektomorf - Last Fight tab

Tabbed by Hyks97 19/7/13

Artist: Ektomorf
Album: Redemption
Song: Last Fight


Tuning: A standard
(From low to high) A, D, G, C, E, A


Clean Intro
(The clean intro has a wierd pattern, the measures are in groups of 3 and then comes the 
3th fret to 2th fret harmonic part)

 A                                    B
||---------|-12---12-|---------||   ||------------||
||-12------|---------|-12------||   ||---*5----4*-||
||---------|---------|---------||   ||------------||
||---------|------10-|---------||   ||------------||
||---------|-12------|---------||   ||-3-----2----||
||-0-------|---------|-0-------||   ||------------||

 C                                   D
||---------|-12---12-|---------||   ||---------|---------|---------||
||-15------|---------|-12------||   ||-12------|-7---8~~~|~~~~~~~~-||
||---------|---------|---------||   ||---------|-7---9~~~|~~~~~~~~-||
||---------|------10-|---------||   ||---------|---------|---------||
||---------|-12------|---------||   ||---------|---------|---------||
||-0-------|---------|-0-------||   ||-0-------|-0---0~~~|~~~~~~~~-||

It goes: A, A, B, C, A, B, D


Main Riff/Intro
||---------------------------|---------------------------||
||---------------------------|---------------------------||
||---------------------------|---------------------------||
||---------------------------|---------------------------|| x4
||---------------------------|---------------------------||
||-4-3-0--0--2-1-0--0--4-3-0-|-0--2-1-0--0--3-3-3--1-1-1-||


Verse
||---------------------------|---------------------------||
||---------------------------|---------------------------||
||---------------------------|---------------------------||
||---------------------------|---------------------------|| x4
||---------------------------|---------------------------||
||-4-3-0--0--2-1-0--0--4-3-0-|-0--2-1-0--0--3-3-3--1-1-1-||


Pre-Chorus
||-----------------|-----------------|-----------------|-----------------||
||-----------------|-----------------|-----------------|-----------------||
||-----------------|-----------------|-----------------|-----------------||
||-----------------|-----------------|-----------------|-----------------||x2
||-----------------|-----------------|-----------------|-----------------||
||-0-8-8-8-8-8-8-8-|-8-7-7-7-7-5-5-5-|-5-4-4-4-4-4-4-4-|-4-1-1-1-1-1-1-1-||


Chorus
||-------------------------|----------------------------|
||-------------------------|----------------------------|
||-------------------------|----------------------------|
||-5~~---------------------|----------------------------|
||-5~~---------------------|----------------------------|
||-3~~-0-0-0--0-0-0--0-0-0-|-0-0-0--0-0-0--0-0-0--0-0-0-|
       . . .  . . .  . . .   . . .  . . .  . . .  . . .
cont.
|-----------------------|----------------------------||
|-----------------------|----------------------------||
|-----------------------|----------------------------||
|-5~~-6~~---------------|----------------------------|| x2
|-5~~-6~~---------------|----------------------------||
|-3~~-4~~--0-0-0--0-0-0-|-0-0-0--0-0-0--0-0-0--0-0-0-||
           . . .  . . .   . . .  . . .  . . .  . . .

Fill (With Phaser)
||-0~~~~~~~~-||
||-0~~~~~~~~-||
||-0~~~~~~~~-||
||-2~~~~~~~~-|| x1
||-2~~~~~~~~-||
||-0~~~~~~~~-||


Main Riff
||---------------------------|---------------------------||
||---------------------------|---------------------------||
||---------------------------|---------------------------||
||---------------------------|---------------------------|| x4
||---------------------------|---------------------------||
||-4-3-0--0--2-1-0--0--4-3-0-|-0--2-1-0--0--3-3-3--1-1-1-||


Verse
||---------------------------|---------------------------||
||---------------------------|---------------------------||
||---------------------------|---------------------------||
||---------------------------|---------------------------|| x4
||---------------------------|---------------------------||
||-4-3-0--0--2-1-0--0--4-3-0-|-0--2-1-0--0--3-3-3--1-1-1-||


Pre-Chorus
||-----------------|-----------------|-----------------|-----------------||
||-----------------|-----------------|-----------------|-----------------||
||-----------------|-----------------|-----------------|-----------------||
||-----------------|-----------------|-----------------|-----------------||x2
||-----------------|-----------------|-----------------|-----------------||
||-0-8-8-8-8-8-8-8-|-8-7-7-7-7-5-5-5-|-5-4-4-4-4-4-4-4-|-4-1-1-1-1-1-1-1-||


Chorus
||-------------------------|----------------------------|
||-------------------------|----------------------------|
||-------------------------|----------------------------|
||-5~~---------------------|----------------------------|
||-5~~---------------------|----------------------------|
||-3~~-0-0-0--0-0-0--0-0-0-|-0-0-0--0-0-0--0-0-0--0-0-0-|
       . . .  . . .  . . .   . . .  . . .  . . .  . . .
cont.
|-----------------------|----------------------------||
|-----------------------|----------------------------||
|-----------------------|----------------------------||
|-5~~-6~~---------------|----------------------------|| x2
|-5~~-6~~---------------|----------------------------||
|-3~~-4~~--0-0-0--0-0-0-|-0-0-0--0-0-0--0-0-0--0-0-0-||
           . . .  . . .   . . .  . . .  . . .  . . .

Bridge
||----------------------------------||
||----------------------------------||
||-------------------------------3*-||
||-----------------------------3*---|| x2
||---------------------------3*-----||
||-0-3-1-0~~-3-1-0~~-3-1-0~~--------||


Interlude
||----------------------------------||
||----------------------------------||
||-------------------------------3*-||
||-----------------------------3*---|| x4 (4th time lift your tremolo bar)
||-2-5-3-2~~-5-3-2~~-5-3-2~~-3*-----||
||-0-3-1-0~~-3-1-0~~-3-1-0~~--------||


Verse 3
||-----------------|-----------------|-----------------|-----------------||
||-----------------|-----------------|-----------------|-----------------||
||-----------------|-----------------|-----------------|-----------------||
||-----------------|-----------------|-----------------|-----------------||x4
||-2-5-3-2~~-2-2-2-|-2-2-2-2-2-2-2-2-|-2-2-2-2-2-2-2-2-|-2-2-2-2-2-2-2-2-||
||-0-3-1-0~~-0-0-0-|-0-0-0-0-0-0-0-0-|-0-0-0-0-0-0-0-0-|-0-0-0-0-0-0-0-0-||
             . . .   . . . . . . . .   . . . . . . . .   . . . . . . . .

Bridge 2
||----------|----------|----------|--------||
||----------|----------|----------|--------||
||----------|----------|----------|--------||
||----------|----------|----------|--------|| x2
||-7--------|-5----7---|-6--------|-3------||
||-8--------|-7----5---|-4--------|-1------||

cont.

||---------------||
||---------------||
||---------------||
||---------------|| x2
||-5-2~~~~~~~~~~-||
||-3-0~~~~~~~~~~-||


Bridge 3 (Only left guitar)
||---------------------------|---------------------------||
||---------------------------|---------------------------||
||---------------------------|---------------------------||
||---------------------------|---------------------------|| x1
||---------------------------|---------------------------||
||-4-3-0--0--2-1-0--0--4-3-0-|-0--2-1-0--0--3-3-3--1-1-1-||


Main riff/Outro
||---------------------------|---------------------------||
||---------------------------|---------------------------||
||---------------------------|---------------------------||
||---------------------------|---------------------------|| x8
||---------------------------|---------------------------||
||-4-3-0--0--2-1-0--0--4-3-0-|-0--2-1-0--0--3-3-3--1-1-1-||
Tap to rate this tab
# A B C D E F G H I J K L M N O P Q R S T U V W X Y Z