Song name
# A B C D E F G H I J K L M N O P Q R S T U V W X Y Z

Ekv - Krug tab

EKV
krug
tabed by scepa


intro
|-------------------------------------------|
|-------------------------------------------|
|-------------------------------------------|
|-------------------------------------------|
|-7--7/5--7--7/5-------7--7/5-------7--7/5--|
|-5--5/3--5--5/3--0/3--5--5/3--0/3--5--5/3--|

 Am F C G
|-0-1-0-3-|
|-1-1-1-0-|
|-2-2-0-0-|
|-2-3-2-0-|
|-0-3-3-2-|
|-0-1-0-3-|

Am           F             C         G
ovaj krug sam smislio ovaj krug sam stvorio
ovaj krug sam razbio u vetar rasuo

same with distorsion
vetr misli vetar zna sve sto znamo ti i ja 
on me voli on me nosi on me razbija

verse 4x
|-------------|
|-------------|
|-------------|
|-2---0-1-2---|
|-0-0-------2-|
|-----------0-|


chorus
|-----------------------------------------|
|-----------------------------------------|
|-3-3-3-3-3-3-3-3-3-3---------------------|
|-3-3-3-3-3-3-3-3-3-3-5-5-5-5-5-5-5-5-5-5-|
|-1-1-1-1-1-1-1-1-1-1-5-5-5-5-5-5-5-5-5-5-|
|---------------------3-3-3-3-3-3-3-3-3-3-|
i kao ne         i kao da ...


ending
play this 3x
|-------------...---------|
|-------------...---------|
|---0-1-2-----...---------|
|-2-----------...-7-5-7/0-|
|-0-----------...-5-3-5/0-|

:)
|---------0-0-...
Tap to rate this tab
# A B C D E F G H I J K L M N O P Q R S T U V W X Y Z