Song name
# A B C D E F G H I J K L M N O P Q R S T U V W X Y Z

El Canto Del Loco - Volver A Disfrutar tab

Help us improve GuitareTab! Take a short survey!
Highlighted       Show chord diagrams
Intro   dejanos en paz
e|------------------------------------|
b|------------------------------------| sto se repite
g|------------------------------------| 4 veces en el
d|------------------------------------| intro
a|-------------------------6--6-------|
E|--4--4--4-4--4--4--6--8--------8--6-|
          pm

 
verso
    Dé...............jano.........s en         pa...............z
e|-------------------------------------------------------------------------|
b|-------------------------------------------------------------------------|
g|-------------------------------------------------------------------------|
d|-------------------------------------------------------------8--8--------|
a|------------------------6--6---------6--6--6-6--6--6--8--10--------10--8-|
E|-4--4--4-4--4--4--6--8--------8--6---------------------------------------|

             pm
         C#            D#          G#
No nos cuentes otro cuento que no va.

    Y...............si e..........s tu
e|------------------------------------|
b|------------------------------------|
g|------------------------------------|
d|------------------------------------|
a|-------------------------6--6-------|
E|--4--4--4-4--4--4--6--8--------8--6-|
          pm
    pla..............n
e|--------------------------------------|
b|--------------------------------------|
g|--------------------------------------|
d|--------------------------8--8--------|
a|--6--6--6-6--6--6--8--10--------10--8-|
E|--------------------------------------|

       C#                     D#       G#
Tú además no has contado con nosotros
       D#                Fm
Y no vais a marearnos más.


pre-coro
        D#       C#         G#-D#
No veo la necesidad de discutir,
Fm            D# C#             D#
   Sólo hay que, dejarlo claro todo y...


coro
                G#
Volver a disfrutar
                D#
Con algo que decir
                 C#
Con algo que pensar
                  C#m                    G#
Dejar las cosas claras para no volver atrás,
                  D#               C#
Cambiar la dirección de un solo motor
                  C#m                      G#
Dejar las cosas claras para no acabar tan mal

puente
G#-D#-C#-C#m-G#

verso 2
    no...............quiero...........
e|------------------------------------|
b|------------------------------------|
g|------------------------------------|
d|------------------------------------|
a|-------------------------6--6-------|
E|--4--4--4-4--4--4--6--8--------8--6-|
          pm
    má...............s
e|--------------------------------------|
b|--------------------------------------|
g|--------------------------------------|
d|--------------------------8--8--------|
a|--6--6--6-6--6--6--8--10--------10--8-|
E|--------------------------------------|
          pm

         C#            D#          G#
No me enseñes tu careto de anormal
    Dé.............. jalo e..........s-
e|------------------------------------|
b|------------------------------------|
g|------------------------------------|
d|------------------------------------|
a|-------------------------6--6-------|
E|--4--4--4-4--4--4--6--8--------8--6-|
          pm
    ta..............r
e|--------------------------------------|
b|--------------------------------------|
g|--------------------------------------|
d|--------------------------8--8--------|
a|--6--6--6-6--6--6--8--10--------10--8-|
E|--------------------------------------|
       C#            D#         G#
Formas parte de ese género que huele
       D#           Fm
a mentira y falsedad

pre-coro
        D#       C#         G#-D#
No veo la necesidad de discutir,
Fm            D# C#             D#
   Sólo hay que, dejarlo claro todo y...


coro
                G#
Volver a disfrutar
                D#
Con algo que decir
                 C#
Con algo que pensar
                  C#m                    G#
Dejar las cosas claras para no volver atrás,
                  D#               C#
Cambiar la dirección de un solo motor
                  C#m                      G#
Dejar las cosas claras para no acabar tan mal

puente
G#-D#-C#-C#m (ahora 2 veces)

outro
Fm         Fm   C#         C#    D# D#-G#-D#
  Por disfrutar,  por disfruta........r,
Fm         Fm   D#         D#  Do#-Re#
  Por disfrutar,  por disfruta....... r,

por volver a disfrutar.

coro 2
                D#
Con algo que decir
                 C#
Con algo que pensar
                  C#m                    G#
Dejar las cosas claras para no volver atrás,
                  D#               C#
Cambiar la dirección de un solo motor
                  C#m                      G#
Dejar las cosas claras para no acabar tan mal

coro
                G#
Volver a disfrutar
                D#
Con algo que decir
                 C#
Con algo que pensar
                  C#m                    G#
Dejar las cosas claras para no volver atrás,

                  D#               C#
Cambiar la dirección de un solo motor
                  C#m
Dejar las cosas claras para no acabar tan
    G#
   mal
e|------------------------------------|
b|------------------------------------|
g|------------------------------------|
d|------------------------------------|
a|-------------------------6--6-------|
E|--4--4--4-4--4--4--6--8--------8--6-|


         
Related for Volver A Disfrutar tab