Guitaretab - guitar tabs
Song name
# A B C D E F G H I J K L M N O P Q R S T U V W X Y Z

El Canto Del Loco - Como Un Perro Ladrando tab

Song: Como un perro ladrando
Band: El canto del loco
Standard tuning: EADGBe

Intro

e|----------|
B|---Ska----|
G|-4-4-4-4--|
D|-4-4-4-4--|
A|-2-2-2-2--|
E|----------|
Pm.   .

Verse 1

Arreglando el mundo...
|-------------------------------------------------------------------------|
|-------------------------------------------------------------------------|
|----------9-9-9-9-----------4-4-4-4--------------------------------------|
|-7-7-7-7--9-9-9-9--4-4-4-4--4-4-4-4--------------------------------------| <>
|-7-7-7-7--7-7-7-7--4-4-4-4--2-2-2-2--------------------------------------|
|-5-5-5-5-----------2-2-2-2-----------------------------------------------|

Verse 2

perdendo el tempo...
|----------------------------|
|----------------------------|
|----------9-9-9-9-8-8-8-8--|
|-7-7-7-7--9-9-9-9--8-8-8-8--|
|-7-7-7-7--7-7-7-7--6-6-6-6--|
|-5-5-5-5--------------------|


Pre-chorus
[ Tab from: http://www.guitaretab.com/e/el-canto-del-loco/99596.html ]
Tan locos...
|------------------------------------------------------------------------|
|------------------------------------------------------------------------|
|-9~~~--8~~~--9~~~-------------------------------------------------------|
|-9~~~--8~~~--9~~~--4-4-4-4----------------------------------------------|
|-7~~~--6~~~--7~~~--4-4-4-4----------------------------------------------|
|-------------------2-2-2-2----------------------------------------------|

Chorus x2

|-----------------------------------------------------------------|
|-----------------------------------------------------------------|
|-4-4-4-4-----------9-9-9-9---------------------------------------|
|-4-4-4-4--7-7-7-7--9-9-9-9--4-4-4-4------------------------------|
|-2-2-2-2--7-7-7-7--7-7-7-7--4-4-4-4------------------------------|
|----------5-5-5-5-----------2-2-2-2------------------------------|

Dopo la seconda volta ripetere intro
After the second times repeat the intro

Verse 1
Verse 2
Pre-Chorus
Chorus x2


Bridge

Corre corre corre...
|----------------|
|----------------|
|----------------|
|-6-6-6-6-6-6----|
|-6-6-6-6-6-6----|
|-4-4-4-4-4-4----|

|-----------------------------------------------|
|-----------------------------------------------|
|--6-6-6-6--4-4-4-4-----------------------------|
|--6-6-6-6--4-4-4-4--4-4-4-4--6-6-6-6-----------|
|--4-4-4-4--2-2-2-2--4-4-4-4--6-6-6-6-----------|
|--------------------2-2-2-2--4-4-4-4-----------|

Chorus x2

|-----------------------------------------------|
|-----------------------------------------------|
|--6-6-6-6--4-4-4-4-----------------------------|
|--6-6-6-6--4-4-4-4--4-4-4-4--6-6-6-6-----------|
|--4-4-4-4--2-2-2-2--4-4-4-4--6-6-6-6-----------|
|--------------------2-2-2-2--4-4-4-4-----------|
Related for Como Un Perro Ladrando tab