El Perro Del Mar - Change Of Hearts tab

Capo on 2nd fret
verse
e|-0----0--0-------------|
B|-0----0--0-------------|
G|-0----0--0-------------|
D|-9----7--5-------------|
A|-7-x5-5--3-x8----------|
E|-0----0--0-------------|

refrain
e|-0----0--0-------------|
B|-0----0--0-------------|
G|-0----0--0-------------|
D|-9----7--5-------------|
A|-7-x5-5--3-x8----------|
E|-0----0--0-------------|

that's pretty much it, beautiful song
Tap to rate this tab
 
# A B C D E F G H I J K L M N O P Q R S T U V W X Y Z