Song name
# A B C D E F G H I J K L M N O P Q R S T U V W X Y Z

El Rejunte - Quiero Ser Tu Sombra tab

1|--0-1-0-------8-0-8-0-8-0-8-10-7-6-7--|
2|--------4-5--------------------6------|
3|-------------------------------7------|
4|--------------------------------------|
5|-0--------0-----7--7-7---7------------|
6|--------------------------------------|

1|--0-1-0-------7-0-7-0-7-0-7-8-5-4-5-------|
2|--------4-5-------------------------------|
3|------------------------------------------|
4|------------------------------------------|
5|-0-------0--------------------------------|
6|---------------7----7----7--7-------------|

1|--0-1-0-----5-5-5-5-3-3-3-5-3-1-0-1-------|
2|--------4-5-------------------------------|
3|------------------------------------------|
4|------------------------------------------|
5|-0-------0--------------------------------|
6|------------------------------------------|

1|--1-0-------------------0-1-0-----------0-5---------|
2|-----3-1-0-------0-1-3--------3-1-0---1-------------|
3|-----------2-1-2--------------------2---------------|
4|----------------------------------------------------|
5|---0--------0------------0----------0------0--------|
6|------0-----------0-----------0---------------------|

1|--12--12-10-0--12-10-0--12-10-0--12-10-0--|
2|------------------------------------------|
3|------------------------------------------|
4|------------------------------------------|
5|------------------------------------------|
6|------------------------------------------|

1|--10-8-0--10-8-0--10-8-0--10-8-0----------|
2|------------------------------------------|
3|------------------------------------------|
4|------------------------------------------|
5|------------------------------------------|
6|------------------------------------------|

1|--8-7-0--8-7-0--8-7-0--8-7-0--------------|
2|------------------------------------------|
3|------------------------------------------|
4|------------------------------------------|
5|------------------------------------------|
6|------------------------------------------|

1|--7-5-0--7-5-0--7-5-0--7-5-0--------------|
2|------------------------------------------|
3|------------------------------------------|
4|------------------------------------------|
5|------------------------------------------|
6|------------------------------------------|

1|--5-3-0--5-3-0--5-3-0--5-3-0----3-1-0-1---|
2|------------------------------------------|
3|------------------------------------------|
4|------------------------------------------|
5|------------------------------------------|
6|------------------------------------------|

1|--1-0-------------------0-1-0-----------0-5--|
2|-----3-1-0-------0-1-3-------3-1-0---1-------|
3|-----------2-1-2-------------------2---------|
4|---------------------------------------------|
5|---------------------------------------------|
6|---------------------------------------------|


1|----------------------------------------|
2|--------------1----1--1--1---3-1-0---0--|
3|-----------------------------------2----|
4|--2-3-2-1-2------2--2--2----------------|
5|--------------0-------------------------|
6|----------------------------------------|

1|----------------------------------------|
2|--------------0----0--0--0---1-0--------|
3|---------------------------------3-2-3--|
4|--2-3-2-1-2------2--2--2----------------|
5|----------------------------------------|
6|----------------------------------------|

1|----------------------------------------|
2|----------------------------------------|
3|--------------2-1-2-1-0-0-0-2-0---------|
4|--2-3-2-1-2---------------------3-2-3---|
5|----------------------------------------|
6|----------------------------------------|

1|--1-0-------------------0-1-0-----------0-5--|
2|-----3-1-0-------0-1-3-------3-1-0---1-------|
3|-----------2-1-2-------------------2---------|
4|---------------------------------------------|
5|---------------------------------------------|
6|---------------------------------------------|

1|--12--12-10-0--12-10-0--12-10-0--12-10-0--|
2|------------------------------------------|
3|------------------------------------------|
4|------------------------------------------|
5|------------------------------------------|
6|------------------------------------------|

1|--10-8-0--10-8-0--10-8-0--10-8-0----------|
2|------------------------------------------|
3|------------------------------------------|
4|------------------------------------------|
5|------------------------------------------|
6|------------------------------------------|

1|--8-7-0--8-7-0--8-7-0--8-7-0--------------|
2|------------------------------------------|
3|------------------------------------------|
4|------------------------------------------|
5|------------------------------------------|
6|------------------------------------------|

1|--7-5-0--7-5-0--7-5-0--7-5-0--------------|
2|------------------------------------------|
3|------------------------------------------|
4|------------------------------------------|
5|------------------------------------------|
6|------------------------------------------|

1|--5-3-0--5-3-0--5-3-0--5-3-0----3-1-0-1---|
2|------------------------------------------|
3|------------------------------------------|
4|------------------------------------------|
5|------------------------------------------|
6|------------------------------------------|

1|--1-0-------------------0-1-0-----------0-5-----|
2|-----3-1-0-------0-1-3-------3-1-0---1----------|
3|-----------2-1-2-------------------2-------2----|
4|------------------------------------------------|
5|------------------------------------------------|
6|------------------------------------------------|


1|--12--12-10-0--12-10-0--12-10-0--12-10-0--|
2|------------------------------------------|
3|------------------------------------------|
4|------------------------------------------|
5|------------------------------------------|
6|------------------------------------------|

1|--10-8-0--10-8-0--10-8-0--10-8-0----------|
2|------------------------------------------|
3|------------------------------------------|
4|------------------------------------------|
5|------------------------------------------|
6|------------------------------------------|

1|--8-7-0--8-7-0--8-7-0--8-7-0--------------|
2|------------------------------------------|
3|------------------------------------------|
4|------------------------------------------|
5|------------------------------------------|
6|------------------------------------------|

1|--7-5-0--7-5-0--7-5-0--7-5-0--------------|
2|------------------------------------------|
3|------------------------------------------|
4|------------------------------------------|
5|------------------------------------------|
6|------------------------------------------|

1|--12--12-10-0--12-10-0--12-10-0--12-10-0--|
2|------------------------------------------|
3|------------------------------------------|
4|------------------------------------------|
5|------------------------------------------|
6|------------------------------------------|

1|--13--13-12-0--13-12-0--13-12-0--13-12-0--|
2|------------------------------------------|
3|------------------------------------------|
4|------------------------------------------|
5|------------------------------------------|
6|------------------------------------------|

1|--15--15-13-0--15-13-0--15-13-0--15-13-0--17--0------------|
2|-------------------------------------------------1---------|
3|-----------------------------------------------------2-----|
4|-----------------------------------------------------------|
5|------------------------------------------------------0----|
6|--------------------------------------------0--------------|
Tap to rate this tab
# A B C D E F G H I J K L M N O P Q R S T U V W X Y Z