Song name
# A B C D E F G H I J K L M N O P Q R S T U V W X Y Z

El Sueno De Morfeo - Ojos De Cielo tab

El sueno de morfeo                                             Ojos de cielo

Hi,is Gabriel again. Heres other tab,im be searching for this tab but i didn't find it, 
i decided to figure it out myself. Any dobut,email me
to gabys2guitar@yahoo.com

INTRO
With acoustic guitar
A4-A-A5-A

  When you start the first riff with electric guitar
E|-10-------9----------9----7---------9-------9---||
B|----10-10---10-10-10---10---10-10-10--10-10--10-||
G|------------------------------------------------||
D|------------------------------------------------||
A|------------------------------------------------||
E|------------------------------------------------||

Verse

You play the riff along all the verse when other player give acoustic rythym play the 
chords

A4        A            A5           A
Duelen los momentos de heridas sin palabras
A4            A            A5            A
De heridas con palabras sin apenas decir nada
A4          A       A5        A
Apenas dices nada y nada es suficiente
A4           A       A5             A
Piensa que es demente hacer caso a la gente

Prechorus:

With a little distortion

E|---9-10----9-10--9--9--9--9--10--10--10--10----||
B|-10-----10--------10-10-10-10--10--10--10--10--||
G|-----------------------------------------------||
D|-----------------------------------------------||
A|-----------------------------------------------||
E|-----------------------------------------------||

A4           A              A5     A
Y yo si tu no estas yo no se estar

Chorus

        A             B5         C#5             D5
Perdoname si alguna ves te hice llorar ojos de cielo
        A             B5         C#5             D5
Perdoname si alguna ves robe de tus labios un te quiero
        A  B5  C#5     D5
Perdoname,    perdoname

E|-----------------------------|
B|-12-12-12-10-10-10-10--------| x3
G|----------------------9-9-9--|
D|-----------------------------|
A|-----------------------------|
E|-----------------------------|

 And then

E|-----------|-------||
B|-11~-9~-7~-|-------||
G|-----------|-2~~~--||
D|-----------|-2~~~--||
A|-----------|-0~~~--||
E|-----------|-------||

Verse 2


A4      A        A5              A
Sigo tus pisadas aunque aveces me pierdo
A4               A           A5            A
Me pierdo en 1000 preguntas y siempre acavo huyendo
A4           A         A5              A          Then start again the
Porque salir corriendo si te llevo aqui adentro     intro riff
A4             A      A5               A
Hoy te hecho de menos pero esque tengo miedo

Prechorus

A4           A              A5     A
Y yo si tu no estas yo no se estar

Chorus

        A5            B5         C#5             D5
Perdoname si alguna ves te hice llorar ojos de cielo
        A5            B5         C#5             D5
Perdoname si alguna ves robe de tus labios un te quiero

A         B5    C#5      D5   A
Perdoname,    perdoname,     Perdoname

Play this riff in the parts that you hear, until she say "perdoname" for the last time.

E||--------------------------------|-----------||
B||-12-12-12-12-10-10-10-10--------|-----------||
G||-------------------------9-9-9--|-11~-9~-7~-||
D||--------------------------------|-----------||
A||--------------------------------|-----------||
E||--------------------------------|-----------||


D5               C#5          B5
Hoy aunque estes lejos sigo aqui
D5          C#5            B5  Em
Sabes que no puedo no sin ti

A4        A            A5           A
Duelen los momentos de heridas sin palabras
A4            A            A5            A
De heridas con palabras sin apenas decir nada
A4          A       A5        A             Then start again the intro
Apenas dices nada y nada es suficiente          riff
A4           A       A5             A
Piensa que es demente hacer caso a la gente

Prechorus

A4           A              A5     A
Y yo si tu no estas yo no se estar

Chorus

        A             B5         C#5             D5
Perdoname si alguna ves te hice llorar ojos de cielo
        A             B5            C#5          D5
Perdoname si alguna ves robe de tus labios un te quiero

   A         B5  C#5      D5
Perdoname,    perdoname,

   A         B5  C#5      D5
Perdoname,    perdoname,

When singing chorus again start playing this riff again                   until end of 
song

E||--------------------------------|
B||-12-12-12-12-10-10-10-10--------|
G||-------------------------9-9-9--|
D||--------------------------------|
A||--------------------------------|
E||--------------------------------|

        A             B5         C#5             D5
Perdoname si alguna ves te hice llorar ojos de cielo
        A             B5            C#5          D5
Perdoname si alguna ves robe de tus labios un te quiero

Also, I have "dimelo" by enrique iglesias.Please rate it

Hablo espaņol,si desea todo en espaņol,escribame a:Gabys2guitar@yahoo.com

The oficial page of the band is www.elsuenodemorfeo.com
Tap to rate this tab
 
# A B C D E F G H I J K L M N O P Q R S T U V W X Y Z