Song name
# A B C D E F G H I J K L M N O P Q R S T U V W X Y Z

El Ten Eleven - Connie tab

Connie by El Ten Eleven
by Hakeem H

Note: the tab isn't complete, I just thought this would be helpful for some people. Let 
know if you figure out the rest.

Standard Tuning - EADBGe
No Capo, yo.

guitar riff 1
---------------------------------------------------|
---------------------------------------------------|
---9----9----9----9--\--2----2----2----2--/--9-----|
------7----7----7---------0----0-----0-------------|
---------------------------------------------------|
---------------------------------------------------|

guitar riff 2
--------------------------------------------------|
--------------------------------------------------|
--------------------------------------------------|
---2----2----2----2---/---7----7----7----7--\--2--|
------0----0----0------------5----5----5----------|
--------------------------------------------------|


guitar riff 3
note: this can be played on the e string,
but this is how the studio version is.
-----------------------------------------------------------|
---(5)---------------5---/--(15)---------------------------|
-----------------------------------------------------------|
-----------------------------------------------------------|
-----------------------------------------------------------|
-----------------------------------------------------------|

http://www.elteneleven.com/
Tap to rate this tab
# A B C D E F G H I J K L M N O P Q R S T U V W X Y Z