El Ten Eleven - My Only Swerving tab

-------------------------------------------------------------------------------
			     My Only Swerving - El Ten Eleven
-------------------------------------------------------------------------------
Tabbed by: Dak R.
Email:

Tuning:Standard EADGBE

Guitar 1
e|----------------------------------------|
B|----------------------------------------|
G|---9--9-9----9--9-9----9--9-9----9--9-9-|(repeat as needed)
D|----6--6------6--6------6--6------6--6--|
A|-----------0-------------------0--------|
E|-0-------------------7------------------|

Guitar 2
e|-12\7--7/9--11--4/7---------------------|
B|----------------------------------------|
G|----------------------------------------|(repeat as needed)
D|----------------------------------------|
A|----------------------------------------|
E|----------------------------------------|

Guitar 3
e|----------------------------------------|
B|--9-12-9---9-12-9---9-12-9---9-12-9-----|
G|----------------------------------------|
D|----------------------------------------|
A|----------------------------------------|
E|----------------------------------------|

He actually plays this on the bass and guitar while looping everything..
 pretty sweet but I dont have all that fancy equipment so it comes 
down to this..have fun

Tap to rate this tab
 
# A B C D E F G H I J K L M N O P Q R S T U V W X Y Z