El Ten Eleven - My Only Swerving tab

My Only Swerving tab

 First amazing song of their first self titled album, "El Ten Eleven."
Any questions email me @ ContraryFlunky17@yahoo.com. I'll just
list the separate loops and effects that he uses.

| /  slide up
| \  slide down
| h  hammer-on
| p  pull-off
| ~  vibrato
| +  harmonic
| x  Mute note


Double neck tuning: Guitar-EADAG#Bd# Bass-EADA


First Loop, no effects.


A|----17----17----17-17----17----17--17----17----17--17----17-----|
D|------16----16-------16----16--------16----16--------16---------|
A|------------------0--------------14~----------------------------|
E|---0---------------------------------------------14~------------|

This next loop he uses a Digitech XP-100 Whammy-Wah pedal to go Up a 5th and tilting the
pedal down will make it go up an Octave,while still holding the original note sound, if
that makes sense, hah. The up and down is which way to tilt the pedal. Timings tricky.

A|---19(DOWN-UP)---16(UP-DOWN)---18(HOLD DOWN)---14(UP-DOWN)------|
D|----------------------------------------------------------------|
A|----------------------------------------------------------------|
E|----------------------------------------------------------------|

In the live version Kristian plays the guitar loop instead of playing the bass line
first. Use distortion and tremolo.


d#|-----------17~~~--------------------17~~~~----|
 B|--------12~~~~-------------------12~~~~-------|
G#|-----12~~~~-------------------12~~~~~---------|
 D|----------------------------------------------|
 A|----------------------------------------------|
 E|----------------------------------------------|



Next up is the bass line. No effects

A|------------------------------------------------------------------|
D|------------------------------------------------------------------|
A|-----------------0----0----0--0-4---4----4--4---------------------|
E|---0---0----0--0------------------------------4---4----4--4-------|

then a variation


A|---------12p11h12p11--------9p7h9p7--------7p5h7p5-------19~------|
D|------------------------------------------------------------------|
A|----------------------0---0----------4---4------------------------|
E|---0---0--------------------------------------------4--4/---------|

A|-----------11h12--------------7h9------------5h7---------19~------|
D|------------------------------------------------------------------|
A|----------------------0---0----------4---4------------------------|
E|---0---0-------------------------------------------4---4/---------|


Chorus, I'll just tab out the doubleneck.


d#|-----------12+---------|-----------12+---------|-----------12+-----------|
 B|------12+------12+-----|------12+------12+-----|-------12+-----12+-------|
G#|-------------------12+-|-------------------12+-|-------------------12+---|
 D|-----------------------|-----------------------|-------------------------|
 A|-----------------------|-----------------------|-------------------------|
 E|-----------------------|-----------------------|-------------------------|
____________________________________________________________________________  x2

 A|-----------------------|-----------------------|-------------------------|
 D|-----------------------|-----------------------|-------------------------|
 A|-----------------------|-----------------------|-------------------------|
 E|---12~-----------------|---7~------------------|---5~--------------------|

This next part is the guitar tapping section.


d#|---5p0---------5p0---------|5p0---------5p0---------|
 B|------5p0---5p0---5p0---5p0|---5p0---5p0---5p0---5p0|  x2 the second time
G#|---------5p0---------5p0---|------5p0---------5p0(s)|     you slide that
 D|---------------------------|------------------------|     labeled note to 12
 A|---------------------------|------------------------|
 E|---------------------------|------------------------|
________________________________________________________

 A|---14~---------16~---------|14~---------------------|
 D|---------------------------|------------------------|
 A|---------------------------|------------------------|
 E|---------------------------|------------------------|


d#|---12p0------------12p0------------|12p0------------12p0------------|
 B|-------12p0----12p0----12p0----12p0|----12p0----12p0----12p0----12p0|
G#|-----------12p0------------12p0----|--------12p0------------12p0----|
 D|-----------------------------------|--------------------------------|
 A|-----------------------------------|--------------------------------|
 E|-----------------------------------|--------------------------------|
________________________________________________________________________

 A|---14~-------------16~-------------|19~-----------------------------|
 D|-----------------------------------|--------------------------------|
 A|-----------------------------------|--------------------------------|
 E|-----------------------------------|--------------------------------|


d#|---12p0------------12p0------------|12p0------------12p0------------|
 B|-------12p0----12p0----12p0----12p0|----12p0----12p0----12p0----12p0|
G#|-----------12p0------------12p0----|--------12p0------------12p0----|
 D|-----------------------------------|--------------------------------|
 A|-----------------------------------|--------------------------------|
 E|-----------------------------------|--------------------------------|
________________________________________________________________________

 A|---19~-------------21~-------------|19~-----------------------------|
 D|-----------------------------------|--------------------------------|
 A|-----------------------------------|--------------------------------|
 E|-----------------------------------|--------------------------------|



d#|---12p0------------12p0------------|12p0------------12p0------------|
 B|-------12p0----12p0----12p0----12p0|----12p0----12p0----12p0----12p0|
G#|-----------12p0------------12p0----|--------12p0------------12p0----|
 D|-----------------------------------|--------------------------------|
 A|-----------------------------------|--------------------------------|
 E|-----------------------------------|--------------------------------|
________________________________________________________________________

 A|-----19--19--19--19--19--19--19--19|--19--19--19--19--19--19--19--19| (Tap the bass 
notes while
 D|-----------------------------------|--------------------------------| tapping on the guitar)
 A|-----------------------------------|--------------------------------|
 E|-----------------------------------|--------------------------------|


d#|--------0~----------|---------0~------------|--------0~---------------|
 B|-----0~----0~-------|------0~-----0~--------|-----0~----0~------------|
G#|--------------0~----|----------------0~-----|--------------0~---------|
 D|--------------------|-----------------------|-------------------------|
 A|--------------------|-----------------------|-------------------------|
 E|--------------------|-----------------------|-------------------------|
____________________________________________________________________________  x2

 A|--------------------|-----------------------|-------------------------|
 D|--------------------|-----------------------|-------------------------|
 A|--------------------|-----------------------|-------------------------|
 E|-12~----------------|-7~--------------------|-5~----------------------|



d#|-----------12+---------|
 B|------12+------12+-----|
G#|-------------------12+-|
 D|-----------------------|
 A|-----------------------|
 E|-----------------------|

Then it goes back into the first loop and play the varied bass line again
and repeat the Chorus again. Hope I helped!


~Jason
Tap to rate this tab
 
# A B C D E F G H I J K L M N O P Q R S T U V W X Y Z