Song name
# A B C D E F G H I J K L M N O P Q R S T U V W X Y Z

Elane - The Night I Left tab

Highlighted       Show chord diagrams
                       Elane - The night I left  (Lore of Nen) 2006


Chart by Corey Hunter @ www.myspace.com/zykophony

Please visit www.myspace.com/elanemusic


* A nice folk ballad by a wonderful band I recently discovered on myspace. The chords 
all very easy as is the basic strumming pattern, which I have indicated below as intro 
Just follow the same basic idea throughout or experiment a bit if you wish.


Gtr I (E A D G B E)

   Intro / Verse
    Em                 C      G6
   4/4
    Gtr I
    Q  E E +E  E E E   Q  EE  Q    E   E
||--0--0-0-(0)-0-0-0-|-0--0-0-(0)--(0)-(0)-|
||o-0--0-0-(0)-0-0-0-|-1--1-1--0----0---0--|
||--0--0-0-(0)-0-0-0-|-0--0-0--0----0---0--|
||--2--2-2-(2)-2-2-2-|-2--2-2--0----0---0--|
||o-2--2-2-(2)-2-2-2-|-3--3-3--x----x---x--|
||--0--0-0-(0)-0-0-0-|---------3----3---3--|


  Asus2
  Q  E E +E  E E E   Q  E E+E  E E E
|-0--0-0-(0)-0-0-0-|-0--0-0-(0)-0-0-0--||
|-0--0-0-(0)-0-0-0-|-0--0-0-(0)-0-0-0-o||
|-2--2-2-(2)-2-2-2-|-2--2-2-(2)-2-2-2--||
|-2--2-2-(2)-2-2-2-|-2--2-2-(2)-2-2-2--||
|-0--0-0-(0)-0-0-0-|-0--0-0-(0)-0-0-0-o||
|------------------|-------------------||


Chorus ( w/half time feel )


   Am             Em             C              D
|  /  /  /  /  |  /  /  /  /  |  /  /  /  /  |  /  /  /  /  |  x 3

   Am             Em             C
|  /  /  /  /  |  /  /  /  /  |  /  /  /  /  |  /  /  /  /  |

   Dsus4          D
|  /  /  /  /  |  /  /  /  /  |
Tap to rate this tab
 
# A B C D E F G H I J K L M N O P Q R S T U V W X Y Z