Elastica - I Wanna Be A King Of Orient Ah tab

-------------------------------------------------------------------------------
			     SONG NAME - Band Name
-------------------------------------------------------------------------------
Tabbed by: sleater kinney
Email: luishipolito25@yahoo.co

Tuning: Standard

Intro:

e|-------------------------------------------------------------------------------------|
B|-------------------------------------------------------------------------------------|
G|-9--7--------------------------------------------------------------------------------|
D|-------10--7--9-10-9--7--------------------------------------------------------------|
A|-------------------------------------------------------------------------------------|
E|-------------------------------------------------------------------------------------|

These two sections are played right before the verse:

e|-----------------------------------------------|
B|-------------------------------------------3B--|
G|--------------------------------7--------------|
D|---7-7---10----5-5---7----7-7---7----5-5-------|
A|---7-7---10----5-5---7----7-7---5----5-5-------|
E|---5-5---8-----3-3---5----5-5--------3-3-------|

e|-----------------------------------------------|
B|-------------------------------------------3B--|
G|--------------------------------7--------------|
D|---7-7---10----5-5---7----7-7---7----5-5-------|
A|---7-7---10----5-5---7----7-7---5----5-5-------|
E|---5-5---8-----3-3---5----5-5--------3-3-------|

Verse:

e|-----------------------------------------------|
B|-------------------------------------------3B--|
G|--------------------------------7--------------|
D|---7-7---10----5-5---7----7-7---7----5-5-------|
A|---7-7---10----5-5---7----7-7---5----5-5-------|
E|---5-5---8-----3-3---5----5-5--------3-3-------|

e|----------------------------------------------|
B|----------------------------------------------|
G|--------------------------------7-------------|
D|---7-7---10----5-5---7----7-7---7----5-5---7--|
A|---7-7---10----5-5---7----7-7---5----5-5---7--|
E|---5-5---8-----3-3---5----5-5--------3-3---5--|

Then:

e|---------------------------------------------------|
B|---------------------------------------------------|
G|-9--7----------------------9--7--------------------|
D|-------10--7--9-10-9--7----------10--7--9-10-9--7--|
A|---------------------------------------------------|
E|---------------------------------------------------|

Verse:

e|-----------------------------------------------|
B|-------------------------------------------3B--|
G|--------------------------------7--------------|
D|---7-7---10----5-5---7----7-7---7----5-5-------|
A|---7-7---10----5-5---7----7-7---5----5-5-------|
E|---5-5---8-----3-3---5----5-5--------3-3-------|

e|----------------------------------------------|
B|----------------------------------------------|
G|--------------------------------7-------------|
D|---7-7---10----5-5---7----7-7---7----5-5---7--|
A|---7-7---10----5-5---7----7-7---5----5-5---7--|
E|---5-5---8-----3-3---5----5-5--------3-3---5--|

Then:

e|-------------------------------------------------------------------------------------|
B|-------------------------------------------------------------------------------------|
G|-9--7--------------------------------------------------------------------------------|
D|-------10--7--9-10-9--7--------------------------------------------------------------|
A|-------------------------------------------------------------------------------------|
E|-------------------------------------------------------------------------------------|

Solo:

e|---------------------------------------------|
B|---8-8---8----8-8---8----8-8---8----8-8---8--|
G|---7-7---7----7-7---7----7-7---7----7-7---7--|
D|---5-5---5----5-5---5----5-5---5----5-5---5--|
A|---------------------------------------------|
E|---------------------------------------------|

e|------------------------------------------------------------|
B|------------------------------------------------------------|
G|------------------------------------------------------------|
D|-10-10--10-12-12--12-14-14--15-17-15-14-12-14-12--10--9--7--|
A|------------------------------------------------------------|
E|------------------------------------------------------------|

e|---------------------------------------------|
B|---8-8---8----8-8---8----8-8---8----8-8---8--|
G|---7-7---7----7-7---7----7-7---7----7-7---7--|
D|---5-5---5----5-5---5----5-5---5----5-5---5--|
A|---------------------------------------------|
E|---------------------------------------------|

e|------------------------------------------------------------|
B|------------------------------------------------------------|
G|------------------------------------------------------------|
D|-10-10--10-12-12--12-14-14--15-17-15-14-12-14-12--10--9--7--|
A|------------------------------------------------------------|
E|------------------------------------------------------------|

Verse:

e|-----------------------------------------------|
B|-------------------------------------------3B--|
G|--------------------------------7--------------|
D|---7-7---10----5-5---7----7-7---7----5-5-------|
A|---7-7---10----5-5---7----7-7---5----5-5-------|
E|---5-5---8-----3-3---5----5-5--------3-3-------|

e|----------------------------------------------|
B|----------------------------------------------|
G|--------------------------------7-------------|
D|---7-7---10----5-5---7----7-7---7----5-5---7--|
A|---7-7---10----5-5---7----7-7---5----5-5---7--|
E|---5-5---8-----3-3---5----5-5--------3-3---5--|

Outro:

e|---------------------------12--10------------------------|
B|-----------------------------------13--10--12-13-12--10--|
G|-9--7----------------------------------------------------|
D|-------10--7--9-10-9--7----------------------------------|
A|---------------------------------------------------------|
E|---------------------------------------------------------|
Tap to rate this tab
 
# A B C D E F G H I J K L M N O P Q R S T U V W X Y Z