Song name
# A B C D E F G H I J K L M N O P Q R S T U V W X Y Z

Elbow - One Day Like This tab

e---------------------------------------------------------------::)  this is the violin parts
b----6-5---3-------------------------------  for the guitar ----::)
g--------5---2-5---------------------------  it might not be 100::)
d--3------------------------------------------------------------::)  but i tabbed in 5 mins
a---------------------------------------------------------------::)  and its my first tab
e---------------------------------------------------------------::)

e------------------------------------------|
b----6-5---3-------------------------------|
g--------5---2--------2-3------------------|
d--3---------------------------------------|
a------------------------------------------|
e------------------------------------------|

BRIGDE
e-----------------------------------------|
b------6-6-----6--------------------------|
g-----------------------------------------|
d--3-3-----3-3----------------------------|
a-----------------------------------------|
e-----------------------------------------|
Tap to rate this tab
 
# A B C D E F G H I J K L M N O P Q R S T U V W X Y Z