Song name
# A B C D E F G H I J K L M N O P Q R S T U V W X Y Z

Elbow - An Audience With The Pope tab

-------------------------------------------------------------------------------
			     An Audience With The Pope  (Solo) - Elbow
-------------------------------------------------------------------------------
Tabbed by: glenn1986

Tuning: Standard (i'm pretty sure)

this is my very first tab and i haven't really been playing guitar 
that long so any corrections/feedback please comment and let me know.
 ill try to do the timing as best i can but just listen to the song. cheers!


e|---------------------------------------------------------------------------------------|
B|---------------------------------------------------------------------------------------|
G|-3------3---3-2---------------------3--------------------------------------------------|
D|---4-5----------------------------------4-5--------------------------------------------|
A|----------5-----3h5-3h5--3h5-3h5--5---5------------------6-5--3h5-3h5--3h5-3h5---------|
E|---------------------------------------------1-2-3-4-5-6-------------------------------|

e|---------------------------------------------------------------------------------------|
B|---------------------------------------------------------------------------------------|
G|-------3-3-3-3---3----3---------------------------------------5------------------------|
D|-5-5-5---------5----5---5-7-7-7-5-7-8--------8-8-5-8-5--8-8-5---8--7-7-7-5-7-5-7-5-7---|
A|---------------------------------------5-5-5-------------------------------------------|
E|---------------------------------------------------------------------------------------|


| /  slide up
| \  slide down
| h  hammer-on
| p  pull-off
| ~  vibrato
| +  harmonic
| x  Mute note
===============================================================================
Tap to rate this tab
# A B C D E F G H I J K L M N O P Q R S T U V W X Y Z